Joe Satriani - Mind Storm Chords & Tabs

 

Mind Storm Chords & Tabs

Joe Satriani Chords & Tabs

Version: 1 Type: Tab 0 ratings
1 star 2 stars 3 stars 4 stars 5 stars
comments

Mind Storm Tab

Intro:

|----------------------------------------------|----------------------------9tr10---|
|-----------------2h3p2------------------2h3p2-|------------------------------------|
|--4--4--4--4-4~~---------7--7--7--7-7~~-------|--4--4--4--4-4~~----7~~-------------|
|--4--4--4--4-4~~---------7--7--7--7-7~~-------|--4--4--4--4-4~~----7~~-------------|
|----------------------------------------------|------------------------------------|
|----------------------------------------------|------------------------------------|

|----------------------------------------------------|
|----------------------------------------------------|
|--4--4--4--4-4~~-----------7--7--7--7-7~~-----------|
|--4--4--4--4-4~~------------7--7--7--7-7~~----------|
|-----------------4h5p4p0-------------------4h5p4p0--|
|----------------------------------------------------|

First theme:

[ Tab from: http://www.guitartabs.cc/tabs/j/joe_satriani/mind_storm_tab.html ]
-----------------------------------|---------------------------------------|
-----------------------------------|---------------------------------------|
--5s6--6--6------------------------|--5s6--6--6--9p6---6---6-6h7p6---------|
------------------------7-9--p7----|-----------------9-------------9-7--9--|
-------------9-9~~--7-9---------9--|---------------------------------------|
-----------------------------------|---------------------------------------|


Second Theme:

---------------------------------------------------------------------------19~~--|
--------------------------------19--17--19--15--17--19--17--15--17--19///--------|
-12--14--16--16--18--19--19~~~---------------------------------------------------|
---------------------------------------------------------------------------------|
---------------------------------------------------------------------------------|
---------------------------------------------------------------------------------|

---------------------------------------------------------------------18///--21///|
--------------------------------19--17--19--15--17--19--17///--19///-------------|
-12--14--16--16--18--19--19~~~---------------------------------------------------|
---------------------------------------------------------------------------------|
---------------------------------------------------------------------------------|
---------------------------------------------------------------------------------|

--22~~~----21~~~----19~~~---17~~~--|
-----------------------------------|
-----------------------------------|
-----------------------------------|
-----------------------------------|
-----------------------------------|

And now back to the same rhythm as before...
Comments