Joe Satriani - Love Thing Chords & Tabs

 

Love Thing Chords & Tabs

Joe Satriani Chords & Tabs

Version: 1 Type: Tab 0 ratings
1 star 2 stars 3 stars 4 stars 5 stars
comments

Love Thing Tab

   
Joe Satriani- Love Thing
From the album Cystal Planet

this tab is original

    Backround 1                                                         
E---0--0--0-----4--4-----2--2-------------------------------------------
B---0--0--0-----5--5-----0--0-------------------------------------------
G---4--4--4-----4--4-----4--4-------------------------------------------
D---4--4--4-----4--4-----4--4-------------------------------------------
A-----------------------------------------------------------------------
E-----------------------------------------------------------------------
                                                                        

    Backround 2                     
E-----------------------------------------------------------------------
B-----------------------------------------------------------------------
G---9--9--8-----6--6-----4--4-------------------------------------------
D-----------------------------------------------------------------------
A-----------------------------------------------------------------------
E-----------------------------------------------------------------------
                                                                        

                                                                        
                                                                        

                   Lead- with heavy wah and distortion                  
E-----------------------------------------------------------------------
B-----------------------------------------------------------------------
G-----------------------------------------------------------------------
D---------------------2/4\2---------------------------------------------
A------------------2---------2--2-----------2--4--6^--(6)--4\2--2-------
E-----------------------------------------------------------------------
                                                                        

                                                                        
E-----------------------------------------------------------------------
B-----------------------------------------------------------------------
G----------------------------------------------------6--6--4--4---------
D------------2/4\2--------2--2-----------6--6--7--7---------------------
A---------2---------4--2------------------------------------------------
E-----------------------------------------------------------------------
                                                                        

                                                                        

                   Solo 1                                               
E------------------7-----5--4--2--4^--(4)--2--4--0--------------4-------
B-----------------------------------------------------------------------
G-----------------------------------------------------------------------
D-----------------------------------------------------------------------
A-----------------------------------------------------------------------
E-----------------------------------------------------------------------
                                                                        

                                                                        
E---4--2--0-----------------------7-----5--4--2--4^--(4)--2--0-----0----
B------------2--0-----------------------------------------------2-------
G------------------1--4-------------------------------------------------
D-----------------------------------------------------------------------
A-----------------------------------------------------------------------
E-----------------------------------------------------------------------
                                                                        

                                                                        
E---4--4--7---------/9-----11-----7-------------------------------------
B------------7--5-------------------------------------------------------
G-----------------------------------------------------------------------
D-----------------------------------------------------------------------
A-----------------------------------------------------------------------
E-----------------------------------------------------------------------
                                                                        

          back to the Lead again                                        
E-------------12--14--12------------------------------------------------
B---------12--------------12--------------------------------------------
G--------------------------------------4--6--8^--(8)--6--4--4-----------
D-----------------------------------------------------------------------
A-----------------------------------------------------------------------
E-----------------------------------------------------------------------
                                                                        

                                   Solo 2                               
E----------------------------------19-----17--16--14-----12--14--16-----
B-----------------------------------------------------------------------
G-----------------------------------------------------------------------
D---------2/4\2--------2------------------------------------------------
A------2---------4--2---------------------------------------------------
E-----------------------------------------------------------------------
                                                                        

                                                                        
E---------19--19-----17--16--14-----12--14------------------------------
B-------------------------------------------16^--(16)-----12--14--------
G-----------------------------------------------------------------------
D-----------------------------------------------------------------------
A-----------------------------------------------------------------------
E-----------------------------------------------------------------------
                                                                        



I don't feel like tabbing any more of it, just stay in this key:

E-----------------------9--11--12---------------------------------------
B------------9--10--12--------------------------------------------------
G-----9--11-------------------------------------------------------------
D-----------------------------------------------------------------------
A-----------------------------------------------------------------------
E-----------------------------------------------------------------------





========================================================================
==                       TABLATURE EXPLANATION                        ==
========================================================================

----------                ----------                ----t---
----5h8--- Hammeron       ----(8)--- Ghost          ----6--- Tap
----------                ---------- Note           --------
----5p8--- Pulloff        ----------                --------

----------                ----------                -----p--
----5/8--- Slide Up       -----x---- Dead           -----7-- Pop
----------                ---------- Note           --s-----
----5\8--- Slide Down     ----------                --5----- Slap 

----------                ||------|| Repeat         --------
----5~~~-- Vibrato        ||*----*||                ---5^--- Bend
----------                ||*----*||                --------
----------                ||------||                --------

----------                ----------                --------
-4:------- Time           ----------                --------
-4:------- Signature      ----------                --------
----------                ----------                --------

Rhythm:
  w = whole note            W = dotted whole
  h = half note             H = dotted half
  q = quarter note          Q = dotted quarter
  e = eighth note           E = dotted eighth
  s = sixteenth note        S = dotted sixteenth
  t = 32nd note             T = dotted 32nd
  x = 64th note             X = dotted 64th
  ^ = triplet

Love Thing - written/performed by: Joe Satriani (from the album: Crystal Planet)

-transcribed by: tab master DUVAN
gusduv@yahoo.com.mx


RHYTHM GUITAR:
(clean)

Tuning : E A D G B E    Time Signature 4/4
riff 1
 |       |       |       |        |       |       |       |        
|----------------------------0---|0---0-------0---0---0-------0---|
|----------------------------7---|7---7-------9---9---9-------7---|
|----------------------------9---|9---8-------6---6---6-------4---|
|----------------------------9---|9---9-------7---7---7-------6---|
|--------------------------------|--------------------------------|
|--------------------------------|--------------------------------|

 |       |       |       |        |       |       |       |        
|0---------------------------0---|0---0-------0---0---0-------0---|
|7---------------------------7---|7---7-------9---9---9-------7---|
|4---------------------------9---|9---8-------6---6---6-------4---|
|6---------------------------9---|9---9-------7---7---7-------6---|
|--------------------------------|--------------------------------|
|--------------------------------|--------------------------------|

 |       |       |       |        |       |       |       |        
|0---------------------------0---|0---0-------0---0---0-------0---|
|7---------------------------7---|7---7-------9---9---9-------7---|
|4---------------------------9---|9---8-------6---6---6-------4---|
|6---------------------------9---|9---9-------7---7---7-------6---|
|--------------------------------|--------------------------------|
|--------------------------------|--------------------------------|

 |       |       |       |        |       |       |       |        
|0---------------------------0---|0---0-------0---0---0-------0---|
|7---------------------------0---|0---0-------0---0---0-------0---|
|4---------------------------9---|9---8-------6---6---6-------4---|
|6---------------------------9---|9---9-------7---7---7-------6---|
|--------------------------------|--------------------------------|
|--------------------------------|--------------------------------|
                                  riff 2
 |       |       |       |        |       |       |       |        
|0-------------------------------|--------0---0-------------------|
|0-------------------------------|--------0---0-------------------|
|4-------------------------------|--------8---8-------------------|
|6-------------------------------|----9---9---9-------------------|
|--------------------------------|--------------------------------|
|--------------------------------|--------------------------------|

 |       |       |       |        |       |       |       |        
|--------0---0-------------------|--------0---0-------------------|
|--------0---0-------------------|--------0---0-------------------|
|--------9---9-------------------|--------8---8-------------------|
|----11--11--11------------------|----9---9---9-------------------|
|--------------------------------|--------------------------------|
|--------------------------------|--------------------------------|

 |       |       |       |        |       |       |       |        
|--------0---0-------------------|--------0---0-------------------|
|--------0---0-------------------|--------0---0-------------------|
|--------6---6-------------------|--------8---8-------------------|
|----7---7---7-------------------|----9---9---9-------------------|
|--------------------------------|--------------------------------|
|--------------------------------|--------------------------------|

 |       |       |       |        |       |       |       |        
|--------0---0-------------------|--------0---0-------------------|
|--------0---0-------------------|--------0---0-------------------|
|--------9---9-------------------|--------6---6-------------------|
|----11--11--11------------------|----7---7---7-------------------|
|--------------------------------|--------------------------------|
|--------------------------------|--------------------------------|
[ Tab from: http://www.guitartabs.cc/tabs/j/joe_satriani/love_thing_tab.html ]
 |       |       |       |        |       |       |       |        
|--------------------------------|0-----------0-------0-----------|
|------------7-------------------|7-----------7-------7-----------|
|--------4-----------------------|4-----------4-------4-----------|
|----6---------------------------|6-----------6-------6-----------|
|--------------------------------|--------------------------------|
|--------------------------------|--------------------------------|
riff 3
 |       |       |       |        |       |       |       |        
|--------------------------------|------------2-------------------|
|------------0-------------------|--------0-----------------------|
|--------2-----------------------|----1---------------------------|
|----2---------------------------|--------------------------------|
|--------------------------------|--------------------------------|
|--------------------------------|--------------------------------|

 |       |       |       |        |       |       |       |        
|------------4-------------------|------------2-------------------|
|--------2-----------------------|--------0-----------------------|
|--------2-----------------------|----1---------------------------|
|----2---------------------------|--------------------------------|
|--------------------------------|--------------------------------|
|--------------------------------|--------------------------------|

 |       |       |       |        |       |       |       |        
|--------------------------------|------------2-------------------|
|------------0-------------------|--------0-----------------------|
|--------2-----------------------|----1---------------------------|
|----2---------------------------|--------------------------------|
|--------------------------------|--------------------------------|
|--------------------------------|--------------------------------|
1st time
 |       |       |       |        |       |       |       |        
|--------0-----------------------|--------0---------------0-------|
|------------4-------------------|------------4-----------4-------|
|----6---------------------------|----6-------------------6-------|
|--------------------------------|--------------------------------|
|--------------------------------|--------------------------------|
|--------------------------------|--------------------------------|
2nd time
 |       |       |       |        |       |       |       |        
|4-----------4-------4---4-------|4-----------4-------4---4-------|
|2-----------2-------2---2-------|2-----------2-------2---2-------|
|2-----------2-------2---2-------|2-----------2-------2---2-------|
|2-----------2-------2---2-------|2-----------2-------2---2-------|
|--------------------------------|--------------------------------|
|--------------------------------|--------------------------------|



LEAD GUITAR:
(distortion w/ wah)

Tuning : E A D G B E    Time Signature 4/4

 |       |       |       |        |       |       |       |        
|--------------------------------|--------------------------------|
|--------------------------------|--------------------------------|
|--------------------------------|--------------------------------|
|--------2/--4/--2---------------|--------------------------------|
|----2---------------2---2~------|--------------------------------|
|--------------------------------|--------------------------------|

 |       |       |       |        |       |       |       |        
|--------------------------------|--------------------------------|
|--------------------------------|--------------------------------|
|--------------------------------|--------------------------------|
|--------------------------------|--------------------------------|
|----2---4/--6^----------4/--2---|2~------------------------------|
|--------------------------------|--------------------------------|

 |       |       |       |        |       |       |       |        
|--------------------------------|--------------------------------|
|--------------------------------|--------------------------------|
|--------------------------------|--------------------------------|
|--------2/--4/--2---------------|--------------------------------|
|----2---------------4---2/--7~--|--------------------------------|
|--------------------------------|--------------------------------|

 |       |       |       |        |       |       |       |        
|--------------------------------|--------------------------------|
|--------------------------------|--------------------------------|
|--------------------------------|--------------------------------|
|----6---6/--7---7/--11--11/-9---|9~------------------------------|
|--------------------------------|--------------------------------|
|--------------------------------|--------------------------------|

 |       |       |       |        |       |       |       |        
|--------------------------------|--------------------------------|
|--------------------------------|--------------------------------|
|--------14'---------14--13--11--|13^---------11------13----------|
|--------------------------------|--------------------------------|
|--------------------------------|--------------------------------|
|--------------------------------|--------------------------------|

 |       |       |       |        |       |       |       |        
|--------------------------------|--------------------------------|
|--------------------------------|--------------------------------|
|9~------------------------------|11'-------------11^-9-----------|
|--------------------------------|----------------------11^-9-----|
|--------------------------------|----------------------------11--|
|--------------------------------|--------------------------------|

 |       |       |       |        |       |       |       |        
|--------------------------------|--------------------------------|
|--------------------------------|--------------------------------|
|--------14'---------14--13--11--|13^---------11------9-----------|
|9-------------------------------|---------------------------\11--|
|--------------------------------|--------------------------------|
|--------------------------------|--------------------------------|

 |       |       |       |        |       |       |       |        
|--------------------------------|--------------------------------|
|--------------------12----------|\14-----------------14`---------|
|9-------11'-----11'-----`11--9--|----------------------------\16~|
|--------------------------------|--------------------------------|
|--------------------------------|--------------------------------|
|--------------------------------|--------------------------------|


 |       |       |       |        |       |       |       |        
|--------12/-14/-12--------------|--------------------------------|
|----12--------------12--12~-----|--------------------------------|
|--------------------------------|--------------------------------|
|--------------------------------|--------------------------------|
|--------------------------------|--------------------------------|
|--------------------------------|--------------------------------|

 |       |       |       |        |       |       |       |        
|--------------------------------|--------------------------------|
|--------------------------------|--------------------------------|
|----4---6/--8^----------6/--4---|4~------------------------------|
|--------------------------------|--------------------------------|
|--------------------------------|--------------------------------|
|--------------------------------|--------------------------------|

 |       |       |       |        |       |       |       |        
|--------------------------------|--------------------------------|
|--------------------------------|--------------------------------|
|--------------------------------|--------------------------------|
|--------2/--4/--2---------------|--------------------------------|
|----2---------------4---2/--7~--|--------------------------------|
|--------------------------------|--------------------------------|
                                                   h
 |       |       |       |        |       |       |       |        
|----------------17'-------1716--|14------------121416------------|
|--------------------------------|--------------------------------|
|--------------------------------|--------------------------------|
|--------------------------------|--------------------------------|
|--------------------------------|--------------------------------|
|--------------------------------|--------------------------------|

 |       |       |       |        |       |       |       |        
|----------------17'-------1716--|14------------1214--------------|
|--------------------------------|------------------------16^---12|
|--------------------------------|--------------------------------|
|--------------------------------|--------------------------------|
|--------------------------------|--------------------------------|
|--------------------------------|--------------------------------|

 |       |       |       |        |       |       |       |        
|----------------17'-------1716--|14------------1214----1214----12|
|14------------------------------|--------------------------------|
|--------------------------------|--------------------------------|
|--------------------------------|--------------------------------|
|--------------------------------|--------------------------------|
|--------------------------------|--------------------------------|
   3         3     3     3     3
 | h      | h     h|    p     |        |       |       |       |        
|141612--------141619141614--14------|--------19^-----19--------------|
|------14--1417------------17--171417|--------------------------------|
|------------------------------------|--------------------------------|
|------------------------------------|--------------------------------|
|------------------------------------|--------------------------------|
|------------------------------------|--------------------------------|



LEAD GUITAR SOLO:
(distortion w/ wah)


Legend
------

 h  = hammer-on
 p  = pull-off
 b  = bend (the number after the "b" is the note that the bend is to sound like)
 r  = bend release
 /  = slide up/down
<5> = natural harmonic
[5] = artifical harmonic
 ~  = vibrato
 tr = trill



E|--------9--------------------------------------------------|--12b14--
B|-12b14----12-9---------------------------------------------|---------
G|---------------11b13--r9-11b13--11-9-----------------------|---------
D|-------------------------------------11-9------------------|---------
A|------------------------------------------11-9-7-9-9/11-11-|---------
E|-----------------------------------------------------------|---------





E|--r11b1---r-b1-r-p9----9-----9-----|---------------------------------
B|--------------------12----12----12-|--------17-19b21--------17-19p17-
G|-----------------------------------|--16-18-----------16-18----------
D|-----------------------------------|---------------------------------
A|-----------------------------------|---------------------------------
E|-----------------------------------|---------------------------------





E|--------------------------------------19-------19-------19-------19-------
B|-19-19b21--r17--19b21--------17-19b21----19b21----19b21----19b21----19b21-
G|-----------------------16-18----------------------------------------------
D|--------------------------------------------------------------------------
A|--------------------------------------------------------------------------
E|--------------------------------------------------------------------------




                still bent to 21
E|-19----------------------------------------------------------
B|----19b21--19-19-19-19-19-19-19-19-19-19r17------------------
G|--------------------------------------------18b20--r16----16-
D|-------------------------------------------------------18----
A|-------------------------------------------------------------
E|-------------------------------------------------------------
Comments