Joe Satriani - Lords Of Karma Chords & Tabs

 

Lords Of Karma Chords & Tabs

Joe Satriani Chords & Tabs

Version: 1 Type: Tab 0 ratings
1 star 2 stars 3 stars 4 stars 5 stars
comments

Lords Of Karma Tab

   
Tabbed by Kevin Konopi

Lords of Karma
Joe Sariani
Surfing with the Alien

~- slide to
w-whammy bar
h-hammer on
b-bend

Rythm for whole song

|--------------------------|
|----------16----------15--|
|-------14-14-------14-14--|
|----14----------14--------|
|-12----------12-----------|
|--------------------------|

Lead

|-5~7-9-12-----------------------|
|-------------7~10-8-10-12-10----|
|--------------------------------|
|--------------------------------|
|--------------------------------|
|--------------------------------|


|-8~11-12-15---------------------|
|--------------------------------|
|--------------8~12b13b12-10-8---|
|--------------------------------|
|--------------------------------|
|--------------------------------|


|-5~7-9-12-----------------------|
|-------------7~10-8-10-12-10----|
|--------------------------------|
|--------------------------------|
|--------------------------------|
|--------------------------------|


|-8~11-12-15---12~14b15b14-12-10-|
|--------------------------------|
|--------------------------------|
|--------------------------------|
|--------------------------------|
|--------------------------------|


|----------------|
|----------------|
|----------------|
|-14-12----------|  x2
|-12-10-15-14----|
|-------13-12----|


|---------------------|
|---------------------|
|---------------------|
|-17-16-------17w17w17|
|-15-14-18-17-15w15w15|
|-------16-15---------|


|-------------------------------------------|
|-------------------------------------------|
|-------15-14-------------------------------|
|-17-16-13-12-17-16-19-17-19-20-19-17-16-17-|
|-15-14-------15-14-17-15-17-18-17-15-14-15-|
|-------------------------------------------|


|-------------------------|
|-------------------------|
|-14-14-16-16-17-17-19-19-|
|-12-12-14-14-15-15-17-17-|
|-------------------------|
|-------------------------|


Solo:

Really quick part with wah wah pedal and wammy bar that i don't know


[ Tab from: http://www.guitartabs.cc/tabs/j/joe_satriani/lords_of_karma_tab.html ]
Lead

|-------------------------------------------------|
|----------------------------------------13-------|
|-------------------------------------------------|
|-------------14----------------12-14-15----14-12-|
|-12-12-14-15----14-12-14-15-12-------------------|
|-------------------------------------------------|


|---------------------------------------------|
|----------------------14-14-15-14-15---------|
|---------------------------------------------|
|-12-14-15-14-12-14-15----------------15-14---|
|---------------------------------------------|
|---------------------------------------------|


|---------------------------------|
|----------13---------------------|
|---------------------------------|
|-12-14-15----15-14-12-14-15-12---|
|---------------------------------|
|---------------------------------|


Lead

|-5~7-9-12-----------------------|
|-------------7~10-8-10-12-10----|
|--------------------------------|
|--------------------------------|
|--------------------------------|
|--------------------------------|


|-8~11-12-15---------------------|
|--------------------------------|
|--------------8~12b13b12-10-8---|
|--------------------------------|
|--------------------------------|
|--------------------------------|


|-5~7-9-12-----------------------|
|-------------7~10-8-10-12-10----|
|--------------------------------|
|--------------------------------|
|--------------------------------|
|--------------------------------|


|-8~11-12-15---12~14b15b14-12-10-|
|--------------------------------|
|--------------------------------|
|--------------------------------|
|--------------------------------|
|--------------------------------|



|----------------------------|  |-------------------|
|----------------------------|  |-------------------|
|-14h16-14-------12-14-12----|  |-14-14-14-14-14-14-|
|----------14-14----------12-|x2|-------------------|
|----------------------------|  |-------------------|
|----------------------------|  |-------------------|
Comments