Joe Satriani - Lifestyle Chords & Tabs

 

Lifestyle Chords & Tabs

Joe Satriani Chords & Tabs

Version: 1 Type: Tab 0 ratings
1 star 2 stars 3 stars 4 stars 5 stars
comments

Lifestyle Tab

   
Lead Riff (Intro/Chorus)

-------------------------      ---------------------------------------------|
-15-15-15----13-13-12----      -----------13-13-13-15----------15-15-15--17-|
----------------------14- (x7) --15-15-15-------------17-17-17--------------| (x2)
-------------------------      ---------------------------------------------|
-------------------------      ---------------------------------------------|
-------------------------      ---------------------------------------------|
   DD          CC   B  A         Bb Bb Bb  C  C  C  D C  C  C  D  D  D   E

Then go back and repeat the 1st part


Intro Rythm

Verses are just bass
[ Tab from: http://www.guitartabs.cc/tabs/j/joe_satriani/lifestyle_tab.html ]
Link Riff (In between each chorus and verse the link riff is played)

-----------------|
-----------------|
-----------------|
-----------------|
-5---------------|
----8--7--3---1--|


Chorus

   D                             G                      D
Your lifestyle Is killing me. Your lifestyle Is killing me

          A                                       Bb            D
And If I don't do something about it they'll be nothing left of me


Whoooah (Link riff)

Verse
(Link riff)
Chorus
Back into Lead riff intro/chorus
Solo (Ad Lib in Dm. Joe uses a wah)
Verse
(Link riff)
Chorus (Ad Lib solo in Dm over the top)

Outro riff (Over Dm)

----------------------|
-13hold-slide-15---10-|
----------------------|
----------------------| (Repeat until end)
----------------------|
----------------------|
Comments