Joe Satriani - Devils Slide Chords & Tabs

 

Devils Slide Chords & Tabs

Joe Satriani Chords & Tabs

Version: 2 Type: Tab 0 ratings
1 star 2 stars 3 stars 4 stars 5 stars
comments

Devils Slide Tab

i only no the start of this song cos its also the start of another joe song

h=hammer on
p=pull off
/=slide

---------------------------------------------------|
--------------------------------------------8--10--|
-11-h12-p11-/9-h11-----11-h12-p11-/9-h11-----------|
---------------------------------------------------|
---------------------------------------------------|
---------------------------------------------------|
[ Tab from: http://www.guitartabs.cc/tabs/j/joe_satriani/devils_slide_tab_ver_2.html ]
---------------------------------------------------|
--------------------------------------------8--10--|
-11-h12-p11-/9-h11-----11-h12-p11-/9-h11-----------|
---------------------------------------------------|
---------------------------------------------------|
---------------------------------------------------|

---------------------------------------------------|
--------------------------------------------8--10--|
-11-h12-p11-/9-h11-----11-h12-p11-/9-h11-----------|
---------------------------------------------------|
---------------------------------------------------|
---------------------------------------------------|

------------------------------------------7--------|
-----------------------------10--------------------|
-11-h12-p11-/9-h11-------7-------------7-----------|
------------------------------------7--------------|
---------------------------------------------------|
---------------------------------------------------|
                                                   x4
Comments