Joe Satriani - Crystal Planet Chords & Tabs

 

Crystal Planet Chords & Tabs

Joe Satriani Chords & Tabs

Version: 1 Type: Tab 0 ratings
1 star 2 stars 3 stars 4 stars 5 stars
comments

Crystal Planet Tab

   
This is 100%
It is right From the Book
Tabbed By Kevin Konopi

h- Hammer on
p-Pull off
~-slide

e|-2h3h2p0h-2h3p0h2-3-5-|
B|-0--------0-------0-0-|
G|----------------------|
D|----------------------|
A|----------------------|
E|----------------------|

Play x3

e|-2h3p0h2-0---5------7-|
B|-0---------3------5---|
G|----------------------|
D|---------------~7-----|
A|----------------------|
E|----------------------|


e|-2h3h2p0h-2h3p0h2-3-5-|
B|-0--------0-------0-0-|
G|----------------------|
D|----------------------|
A|----------------------|
E|----------------------|

Play x3

e|-2h3p0h2-0---5------7-|
B|-0---------3------5---|
G|----------------------|
D|---------------~7-----|
A|----------------------|
E|----------------------|

e|-2h3h2p0h-2h3p0h2-3-5-|
B|-0--------0-------0-0-|
G|----------------------|
D|----------------------|
A|----------------------|
E|----------------------|

Play x3
[ Tab from: http://www.guitartabs.cc/tabs/j/joe_satriani/crystal_planet_tab.html ]
e|-2h3p0h2-0---5------7-|
B|-0---------3------5---|
G|----------------------|
D|---------------~7-----|
A|----------------------|
E|----------------------|

e|-2h3h2p0h-2h3p0h2-3-5-|
B|-0--------0-------0-0-|
G|----------------------|
D|----------------------|
A|----------------------|
E|----------------------|

Play x3

e|-2h3p0h2-0---5------7-|
B|-0---------3------5---|
G|----------------------|
D|---------------~7-----|
A|----------------------|
E|----------------------|

e|----------------------------|
B|----------------------------|
G|-------------------------2--|
D|-4-5-4-2-4-5-4-2-4-4-4-5-2--|
A|-2-------2-------2-2-2-2----|
E|----------------------------|

Play x3

e|----------------|
B|----------------|
G|----------------|
D|-4-4-4-7-2------|
A|-2-2-2-5-0------|
E|----------------|

e|----------------------------|
B|----------------------------|
G|-------------------------2--|
D|-4-5-4-2-4-5-4-2-4-4-4-5-2--|
A|-2-------2-------2-2-2-2----|
E|----------------------------|

Play x3

e|----------------|
B|----------------|
G|----------------|
D|-4-4-4-7-2------|
A|-2-2-2-5-0------|
E|----------------|

Rate 5 stars.
Comments