Joe Satriani - Crushing Day Chords & Tabs

 

Joe Satriani Chords & Tabs

Version: 1 Type: Tab 0 ratings
1 star 2 stars 3 stars 4 stars 5 stars
comments

Crushing Day Tab

   
#----------------------------------PLEASE NOTE---------------------------------#
#This file is the author's own work and represents their interpretation of the #
#song. You may only use this file for private study, scholarship, or research. #
#------------------------------------------------------------------------------##

                                  CRUSHING DAY
                           As recorded by Joe Satriani
                  (From the 1988 Album SURFING WITH THE ALIEN)

Music by Joe Satriani
Transcribed by Chris Morrison

          C5                   D5                   Gm                   Eb
      x 3 5 5 x x          x 5 7 7 x x        x 10 12 12 11 x        x 6 8 8 8 x

           F                   Em                    C                  Dsus4
    x 8 10 10 10 x         x 7 9 9 8 x          x 3 5 5 5 3          x 5 7 7 8 x

           D                  Dsus2                 G5                   Gm7
      x 5 7 7 7 x          x 5 7 7 5 x          3 5 5 0 x x          3 x 3 3 x x

        G7sus4                 Dm7                D7sus4                 Eb5
      3 x 3 5 x x          x x 0 5 6 x          x x 0 5 8 x          x 6 8 8 x x

          Eb6                  F5
     x 6 10 0 x x         x 8 10 10 x x

Gtr I (E A D G B E) - 'Untitled'
Gtr II (E A D G B E) - 'Untitled'
Gtr III (E A D G B E) - 'Untitled'
Gtr IV (E A D G B E) - 'Untitled'
Gtr V (E A D G B E) - 'Untitled'

 Intro
  Moderately uptempo rock Q=165
  C5                                  (Cb5)
 4/4
  Gtr I
    PM|   PM----|     PM|   PM----|     PM|   PM----|     PM|   PM----|
  E E E E E E E E   E E E E E E E E   E E E E E E E E   E E E E E E E E
|-----------------|-----------------|-----------------|-----------------|
|-----------------|-----------------|-----------------|-----------------|
|-5-----5---------|-5-----5---------|-5-----5---------|-5-----5---------|
|-5-----5---------|-5-----5---------|-4-----4---------|-4-----4---------|
|-3-3-3-3-3-3-3-3-|-3-3-3-3-3-3-3-3-|-3-3-3-3-3-3-3-3-|-3-3-3-3-3-3-3-3-|
|-----------------|-----------------|-----------------|-----------------|


  C5                                  (Cb5)             N.C.
    PM|   PM----|     PM|   PM----|     PM|   PM----|
  E E E E E E E E   E E E E E E E E   E E E E E E E E   E E E E E E E E
|-----------------|-----------------|-----------------|------------------||
|-----------------|-----------------|-----------------|------------------||
|-5-----5---------|-5-----5---------|-5-----5---------|-5----------------||
|-5-----5---------|-5-----5---------|-4-----4---------|-4----------------||
|-3-3-3-3-3-3-3-3-|-3-3-3-3-3-3-3-3-|-3-3-3-3-3-3-3-3-|-3---------0-1-2--||
|-----------------|-----------------|-----------------|---0-1-2-3--------||


 Verse
  C5C   C5C          C5 C   C5   C
  Gtr I
  E E E E  E E E E    E E E E     E E E E
  | | | |  | | | |    | | | |     | | | |
  / o / /  o / / /    / o / /     o / / /

  Gtr II
           ~~~~~~~~~~~~~          ~~~~~~~~~
  H        H          H        A  H
|------------------|----------------------|
|------------------|-13-------13s16-------|
|---------12-------|----------------------|
|------------------|----------------------|
|------------------|----------------------|
|------------------|----------------------|


  D5 D   D5D         D5    D   D5D     A
   E E E E E E E E     E   E E E E E E   E
   | | | | | | | |     |   | | | | | |   |
   / o / / o / / /     /   o / / o / /   o

 ~~~~~~~~~~~~~~~~~~~~~~~~~~
   W                  +H..              +E
|------------------|-------------------------|
|------------------|-------------------------|
|-14---------------|-(14)--------------(14)\-|
|------------------|-------------------------|
|------------------|-------------------------|
|------------------|-------------------------|


  C5C   C5C          C5   C   C5   C          D5  D   D5D
  E E E E  E E E E     E  E E E     E E E E    E  E E E E E  E E
  | | | |  | | | |     |  | | |     | | | |    |  | | | | |  | |
  / o / /  o / / /     /  o / /     o / / /    /  o / / o /  / /

           ~~~~~~~~~~~~~~~          ~~~~~~~~~~~~~~
  H        H           H         A  H          H.            Q
|------------------|------------------------|--------------------|
|------------------|-[13]-------13s16-------|--------------------|
|---------12-------|------------------------|-14------------12---|
|------------------|------------------------|--------------------|
|------------------|------------------------|--------------------|
|------------------|------------------------|--------------------|


  D5     D                         D5        D        A
   E     E           E               E         E  E E E
   |     |           |               |         |  | | |
   /     o           /               /         o  / / o

   /0.5______\0.5____/0.5____\0.5____/    \7
   E.       +S      +S      +S      +S   +S   +H
|--------------------------------------------------------|
|--------------------------------------------------------|
|-11-------(11)----(11)----(11)----(11)-(11)-(11)--------|
|--------------------------------------------------------|
|--------------------------------------------------------|
|--------------------------------------------------------|


  C5     C   C5C          C5 C   C5   C
       E E E E  E E E E    E E E E     E E E E
       | | | |  | | | |    | | | |     | | | |
       / o / /  o / / /    / o / /     o / / /

                ~~~~~~~~~~~~~          ~~~~~~~~~
    A  E E Q    H          H        A  H
|-----------------------|----------------------|
|-----------------------|-13-------13s16-------|
|-(11)s7-------12-------|----------------------|
|-----------------------|----------------------|
|-----------------------|----------------------|
|-----------------------|----------------------|


  D5 D   D5D         D5 D    D5D       A
   E E E E E E E E    E E  E E  E E  E E
   | | | | | | | |    | |  | |  | |  | |
   / o / / o / / /    / o  / /  o /  / o

 ~~~~~~~~~~~~~~~~~~~~~~~        ~~
   W                  Q    Q    Q    Q
|------------------|----------------------||
|------------------|----------------15----||
|-14---------------|-14---15---17---------||
|------------------|----------------------||
|------------------|----------------------||
|------------------|----------------------||


 Chorus
  Gm  G      Gm           Eb  Eb      Eb           F
   E  E E     E  +E  E  E E    E  E E  E  +E  E  E E
   |  | |     |   |  |  | |    |  | |  |   |  |  | |
   /  o /     /   /  /  x o    /  o /  /   /  /  x o

  Gtrs II, III
   ~~~            ~~~~         ~~~~~~~~~~~~~~~
   Q.      a  E  +Q     Q      Q.      E  +Q     Q
|----------------------15---|------------------------|
|---------13s15-(15)--------|-18------16-(16)---15---|
|---------------------------|------------------------|
|-17------------------------|------------------------|
|---------------------------|------------------------|
|---------------------------|------------------------|


  F          F               F        F           G
   E     E E  E  +E  E E E     E  E E  E +E  E  E  E
   |     | |  |   |  | | |     |  | |  |  |  |  |  |
   /     o /  /   /  / x o     /  o /  /  /  /  x  o

         ~~       ~~~~
   E     Q    E  +H           +Q.      E  E  E  E  E
|--------------------------|-------------------------|
|--------------------------|-------------------15----|
|-17b19r17---17-(17)-------|-(17)-----14-15-17-------|
|--------------------------|----------------------17-|
|--------------------------|-------------------------|
|--------------------------|-------------------------|


  Gm   G      Gm              Eb  Eb       Eb           F
    E  E E     E  +E  E  E    E     E  E E  E  +E  E  E E
    |  | |     |   |  |  |    |     |  | |  |   |  |  | |
    /  o /     /   /  /  x    o     /  o /  /   /  /  x o

               ~~~~~~~              ~~~~~~~~~~
   +Q.      a  E  +Q     Q         +Q.      E  +Q     Q
|-----------------------17b18r==|=(17)-----15-(15)--------|
|----------13s15-(15)---18b20r==|=(18)-----16-(16)---18---|
|-------------------------------|--------------------19---|
|-(17)--------------------------|-------------------------|
|-------------------------------|-------------------------|
|-------------------------------|-------------------------|


  F            F               F        F        C
   E      E  E  E  +E  E E E     E  E E E +E E E E
   |      |  |  |   |  | | |     |  | | |  | | | |
   /      o  /  /   /  / x o     /  o / /  / / x o

                ~~~~~~~~~~~~~~~~~~~~
   E     +Q     E  +H           +W
|----------------------------|---------------------||
|-16b18r(16)---16-(16)-------|-(16)----------------||
|-17b19r(17)---17-(17)-------|-(17)----------------||
|----------------------------|---------------------||
|----------------------------|---------------------||
|----------------------------|---------------------||


 Interlude
  C5                                        (Cb5)
  Gtrs II, III
   +W                   +W                  W                 W
|--------------------|--------------------|-----------------|------------------|
|-(16)---------------|-(16)---------------|-----------------|------------------|
|-(17)---------------|-(17)---------------|-----------------|------------------|
|--------------------|--------------------|-----------------|------------------|
|--------------------|--------------------|-----------------|------------------|
|--------------------|--------------------|-----------------|------------------|
|
| Gtr I
|      PM|   PM----|        PM|   PM----|     PM|   PM----|     PM|   PM----|
|   E  E E E E E E E     E  E E E E E E E   E E E E E E E E   E E E E E E E E
|--------------------|--------------------|-----------------|------------------|
|--------------------|--------------------|-----------------|------------------|
|---5------5---------|---5------5---------|-5-----5---------|-5-----5----------|
|---5------5---------|---5------5---------|-4-----4---------|-4-----4----------|
|---3--3-3-3-3-3-3-3-|---3--3-3-3-3-3-3-3-|-3-3-3-3-3-3-3-3-|-3-3-3-3-3-3-3-3--|
|--------------------|--------------------|-----------------|------------------|


  C5                                  (Cb5)               N.C.
  Gtr I
    PM|   PM----|     PM|   PM----|     PM|   PM----|
  E E E E E E E E   E E E E E E E E   E E E E E E E E   E E E E E E E E
|-----------------|-----------------|-----------------|------------------|
|-----------------|-----------------|-----------------|------------------|
|-5-----5---------|-5-----5---------|-5-----5---------|-5----------------|
|-5-----5---------|-5-----5---------|-4-----4---------|-4----------------|
|-3-3-3-3-3-3-3-3-|-3-3-3-3-3-3-3-3-|-3-3-3-3-3-3-3-3-|-3---------0-1-2--|
|-----------------|-----------------|-----------------|---0-1-2-3--------|


 Verse
  C5C   C5C             C5 C   C5   C          D5 D   D5D
  Gtr I
  E E E E   E   E E E    E E E E     E E E E    E E E E E E E E
  | | | |   |   | | |    | | | |     | | | |    | | | | | | | |
  / o / /   o   / / /    / o / /     o / / /    / o / / o / / /

  Gtr II
            \6/
                         ~~          ~~~~~~~~~~~~~
  H         H            H        A  H          W
|---------------------|----------------------|------------------|
|---------------------|-13-------13s16-------|------------------|
|---------h12---------|----------------------|-14---------------|
|---------------------|----------------------|------------------|
|---------------------|----------------------|------------------|
|---------------------|----------------------|------------------|


  D5   D   D5   D        A   C5C   C5C                       C5 C   C5   C
    E  E E   E    E  E E E   E E E E   E   E   E       E      E E E E     E E E E
    |  | |   |    |  | | |   | | | |   |   |   |       |      | | | |     | | | |
    /  o /   /    o  / / o   / o / /   o   /   /       /      / o / /     o / / /

             \3                        \6/     \0.5/   \1/
                                                              ~~          ~~
    Q.      +E   +H          H         Q      +E      +E      H        A  H
|--------------------------|-------------------------------|-------------------------|
|--------------------------|-------------------------------|-13-------13s16----------|
|------(14)-(14)-------|---------h12-----(12)----(12)--|-------------------------|
|--------------------------|-------------------------------|-------------------------|
|--------------------------|-------------------------------|-------------------------|
|--------------------------|-------------------------------|-------------------------|


  D5 D   D5D           D5 D        D5D          A   C5C     C5C
   E E E E  E E  E E    E E   E    E E E    E   E   E E  E  E   E E E E
   | | | |  | |  | |    | |   |    | | |    |   |   | |  |  |   | | | |
   / o / /  o /  / /    / o   /    / o /    /   o   / o  /  /   o / / /

   ~~
                        |---3----|   |---3----|
   H        Q    Q      Q   Q    Q   Q    Q   Q     Q   +Q      H
|--------------------|----------------------------|---------------------|
|--------------------|----------------------------|---------------------|
|-14-------14---12---|-11p==0h==11p==0h==11p==0---|-0---(0)---h12-------|
|--------------------|----------------------------|---------------------|
|--------------------|----------------------------|---------------------|
|--------------------|----------------------------|---------------------|


  C5 C   C5   C          D5 D   D5D         D5   D                 D5D               A
   E E E E     E E E E    E E E E E E E E     E  E        E        E  E     E  E     E
   | | | |     | | | |    | | | | | | | |     |  |        |        |  |     |  |     |
   / o / /     o / / /    / o / / o / / /     /  o        /        /  o     /  /     o

                                                    \2.5/    \2.5/    \2.5/    \2.5/
   ~~          ~~~~~~~~~~~~~
                                              |------3-------|
   H        a  H          W                  +Q     Q        Q        Q        Q
|----------------------|------------------|-----------------------------------------------||
|-13-------13s16-------|------------------|-----------------------------------------------||
|----------------------|-14---------------|-(14)---14h======15h======17s======19----------||
|----------------------|------------------|-----------------------------------------------||
|----------------------|------------------|-----------------------------------------------||
|----------------------|------------------|-----------------------------------------------||


 Chorus
  $
  Gm  G      Gm           Eb  Eb      Eb           F
   E  E E     E  +E  E  E E    E  E E  E  +E  E  E E
   |  | |     |   |  |  | |    |  | |  |   |  |  | |
   /  o /     /   /  /  x o    /  o /  /   /  /  x o

   ~~~            ~~~~         ~~~~~~~~~~~~~~~
   Q.      a  E  +Q     Q      Q.      E  +Q     Q
|----------------------15---|------------------------|
|---------13s15-(15)--------|-18------16-(16)---15---|
|---------------------------|------------------------|
|-17------------------------|------------------------|
|---------------------------|------------------------|
|---------------------------|------------------------|


  F          F               F        F           G
   E     E E  E  +E  E E E     E  E E  E +E  E  E  E
   |     | |  |   |  | | |     |  | |  |  |  |  |  |
   /     o /  /   /  / x o     /  o /  /  /  /  x  o

         ~~       ~~~~
   E     Q    E  +H           +Q.      E  E  E  E  E
|--------------------------|-------------------------|
|--------------------------|-------------------15----|
|-17b19r17---17-(17)-------|-(17)-----14-15-17-------|
|--------------------------|----------------------17-|
|--------------------------|-------------------------|
|--------------------------|-------------------------|


  Gm  G      Gm              Eb  Eb       Eb           F
   E  E E     E  +E  E  E    E     E  E E  E  +E  E  E E
   |  | |     |   |  |  |    |     |  | |  |   |  |  | |
   /  o /     /   /  /  x    o     /  o /  /   /  /  x o

              ~~~~~~~              ~~~~~~~~~~
   Q.      a  E  +Q     Q         +Q.      E  +Q     Q
|----------------------17b18r==|=(17)-----15-(15)--------|
|---------13s15-(15)---18b20r==|=(18)-----16-(16)---18---|
|------------------------------|--------------------19---|
|-17---------------------------|-------------------------|
|------------------------------|-------------------------|
|------------------------------|-------------------------|


  F            F               F        F            E
   E      E  E  E  +E  E E E     E  E E E +E E   E     E
   |      |  |  |   |  | | |     |  | | |  | |   |     |
   /      o  /  /   /  / x o     /  o / /  / /   x     o

                ~~~~~~~~~~~~~~~~~~~~
   E     +Q     E  +H           +H.             +E    +E
|----------------------------|-----------------------------||
|-16b18r(16)---16-(16)-------|-(16)------------(16)/-(16)\-||
|-17b19r(17)---17-(17)-------|-(17)------------(17)/-(17)\-||
|----------------------------|-----------------------------||
|----------------------------|-----------------------------||
|----------------------------|-----------------------------||


 Interlude
  Em      Em              C   C        C         D
   E  E E  E  +E  E  E    E     E  E E  E  +E  E  E E
   |  | |  |   |  |  |    |     |  | |  |   |  |  | |
   /  o /  /   /  /  x    o     /  o /  /   /  /  o /

  Gtrs II, III
   ~~~         ~~~~             ~~~~~~~~~~~~~~~
   Q.      E  +Q     Q         +Q.      E  +Q     Q
|---------19-(19)---22b24r==|=(22)-----20-(20)---19---|
|-17------------------------|-------------------------|
|--------------------7b9r===|==(7)--------------------|
|----------9--(9)-----------|----------10-(10)----9---|
|--7------------------------|-------------------------|
|---------------------------|-------------------------|


  DsuD4   D               Dsus2 D   D        E
   E  E E  E  +E  E E E    E    E E E +E E E E
   |  | |  |   |  | | |    |    | | |  | | | |
   /  o /  /   /  / o /    /    o / /  / / x o

           ~~~~~~~                     ~~
   E  Q    E  +H           H           H
|-19s17---17-(17)-------|-----------------------|
|-----------------------|-19b20-------19--------|
|-----------------------|-----------------------|
|--9s=7----7--(7)-------|-----------------------|
|-----------------------|--9b10--------9--------|
|-----------------------|-----------------------|


  Em  E   Em               C   C       C         D
   E  E E   E  +E  E  E    E    E  E E  E  +E  E  E E
   |  | |   |   |  |  |    |    |  | |  |   |  |  | |
   /  o /   /   /  /  x    o    /  o /  /   /  /  o /

   ~~~          ~~~~            ~~~~~~~~~~~~~~~
   Q.       E  +Q     Q         Q.      E  +Q     Q
|---------/19-(19)---22b24---|-22------20-(20)---19---|
|-17-------------------------|------------------------|
|--------------------/9------|--7---------------------|
|----------/9--(9)-----------|---------10-(10)----9---|
|--7-------------------------|------------------------|
|----------------------------|------------------------|
|
| Gtrs IV, V
|                               ~~~         ~~~~
|  H            Q     Q         Q.      E  +Q     Q
|--------------------17b19---|-17------15-(15)--------|
|--------------------19b20---|-19------17-(17)---19---|
|----------------------------|-------------------19---|
|----------------------------|------------------------|
|----------------------------|------------------------|
|----------------------------|------------------------|


               To Coda
  DsuD4   D               Dsus2D   D
   E  E E  E  +E  E E E     E  E E E  +E   E  E  E
   |  | |  |   |  | | |     |  | | |   |   |  |  |
   /  o /  /   /  / x /     /  o / /   /   /  x  x

           ~~~~~~~~~~~~~~~~~~~~
   E  Q    E  +H           +H         +E   E  E  E
|-19s17---17-(17)-------|-(17)-------(17)-15-17-15--||
|-----------------------|---------------------------||
|-----------------------|---------------------------||
|--9s=7----7--(7)-------|--(7)--------(7)--5--7--5--||
|-----------------------|---------------------------||
|-----------------------|---------------------------||
|
|              ~~~~~~~~~~~~~~~~
|  E  Q    E  +H           +H         +E   E  E  E
|-----------------------|---------------------------||
|-19s17---17-(17)-------|-(17)-------(17)-15-17-15--||
|-19s17---17-(17)-------|-(17)-------(17)-15-17-15--||
|-----------------------|---------------------------||
|-----------------------|---------------------------||
|-----------------------|---------------------------||


  Gm    G   Gm                   Eb  Eb      Eb           F
  Gtr I
   E    E E  E      +E   E  E    E    E  E E  E  +E  E  E E
   |    | |  |       |   |  |    |    |  | |  |   |  |  | |
   /    o /  /       /   /  x    o    /  o /  /   /  /  x o

  Gtrs II, III
                                              ~~~~~~~
   Q.        E      +Q      Q         Q.      E  +Q     Q
|-17b18-----17b18--(17)----17b18---|-17------15-(15)--------|
|----------------------------------|-------------------18---|
|----------------------------------|------------------------|
|--7b8-------7b8----(7)-----7b8----|--7-------5--(5)--------|
|----------------------------------|--------------------8---|
|----------------------------------|------------------------|
|
| Gtr IV
|                                     ~~~~~~~~~~~~~~~
|  Q.        E      +Q      Q         Q.      E  +Q     Q
|----------------------------------|------------------------|
|-18b20-----18b20==(18)r---18b20---|-18------16-(16)---15---|
|----------------------------------|------------------------|
|----------------------------------|------------------------|
|----------------------------------|------------------------|
|----------------------------------|------------------------|


  F       F                   F        F        C
   E  E E  E  +E  E E     E     E  E E E +E E E E
   |  | |  |   |  | |     |     |  | | |  | | | |
   /  o /  /   /  / x     o     /  o / /  / / x o

           ~~~~~~~~~~~~~~~~~~~~~~~~
   E  Q    E  +H               +W
|---------------------------|---------------------|
|-18s16---16-(16)-----------|-(16)----------------|
|---------------------------|---------------------|
|---------------------------|---------------------|
|--8s=6----6--(6)-----------|--(6)----------------|
|---------------------------|---------------------|
|
|          ~~~~~~~~~~~~~~~~~~~~~~~~
|  E  Q    E  +Q.      A  E    +W
|---------------------------|---------------------|
|-15s11---11-(11)-----11s13-|-(13)----------------|
|---------------------------|---------------------|
|---------------------------|---------------------|
|---------------------------|---------------------|
|---------------------------|---------------------|


  C5
  Gtr I
       PM|   PM----|        PM|   PM----|
    E  E E E E E E E     E  E E E E E E E
|--------------------|--------------------|
|--------------------|--------------------|
|---5------5---------|---5------5---------|
|---5------5---------|---5------5---------|
|---3--3-3-3-3-3-3-3-|---3--3-3-3-3-3-3-3-|
|--------------------|--------------------|
|
| Gtrs II, III
|   ~~~~~~~~~~~~~~~~~~~~~~~~~~~~~~~~~~~~~~~
|  +W                   +W
|--------------------|--------------------|
|-(16)---------------|-(16)---------------|
|--------------------|--------------------|
|--------------------|--------------------|
|--(6)---------------|--(6)---------------|
|--------------------|--------------------|
|
| Gtr IV
|   ~~~~~~~~~~~~~~~~~~~~~~~~~~~~~~~~~~~~~~~
|  +W                   +W
|--------------------|--------------------|
|-(13)---------------|-(13)---------------|
|--------------------|--------------------|
|--------------------|--------------------|
|--------------------|--------------------|
|--------------------|--------------------|


  (Cb5)
       PM|   PM----|        PM|   PM----|
    E  E E E E E E E     E  E E E E E E E
|--------------------|---------------------|
|--------------------|---------------------|
|---5------5---------|---5------5----------|
|---4------4---------|---4------4----------|
|---3--3-3-3-3-3-3-3-|---3--3-3-3-3-3-3-3--|
|--------------------|---------------------|
|
|~~~~~~~~~~~~~~~~~~~~~~~~~~~
|  +W                   +W
|--------------------|---------------------|
|-(16)---------------|-(16)----------------|
|--------------------|---------------------|
|--------------------|---------------------|
|--(6)---------------|--(6)----------------|
|--------------------|---------------------|
|
|~~~~~~~~~~~~~~~~~~~~~~~~~~~
|  +W                   +W
|--------------------|---------------------|
|-(13)---------------|-(13)----------------|
|--------------------|---------------------|
|--------------------|---------------------|
|--------------------|---------------------|
|--------------------|---------------------|


       PM|   PM----|     PM|   PM----|
    E  E E E E E E E   E E E E E E E E
|--------------------|-----------------|
|--------------------|-----------------|
|---5------5---------|-5-----5---------|
|---5------5---------|-5-----5---------|
|---3--3-3-3-3-3-3-3-|-3-3-3-3-3-3-3-3-|
|--------------------|-----------------|
|
|  +H.           Q     W
|--------------------|-----------------|
|-(16)---------------|-----------------|
|--------------------|-----------------|
|--------------------|-----------------|
|--(6)---------------|-----------------|
|--------------------|-----------------|
|
|  +H.           Q     W
|--------------------|-----------------|
|-(13)---------------|-----------------|
|--------------------|-----------------|
|--------------------|-----------------|
|--------------------|-----------------|
|--------------------|-----------------|


    PM|   PM----|      ~~~~~~~~~~
  E E E E E E E E   A  H     +E  +E    Q
|-----------------|------------------------||
|-----------------|------------------------||
|-5-----5---------|------------------------||
|-4-----4---------|---[4]----(4)-(4)/------||
|-3-3-3-3-3-3-3-3-|-x----------------------||
|-----------------|-------------------15\--||
|
| W                    W
|-----------------|------------------------||
|-----------------|------------------------||
|-----------------|------------------------||
|-----------------|------------------------||
|-----------------|------------------------||
|-----------------|------------------------||
|
| W                    W
|-----------------|------------------------||
|-----------------|------------------------||
|-----------------|------------------------||
|-----------------|------------------------||
|-----------------|------------------------||
|-----------------|------------------------||


 Guitar Solo
  G5
  Gtr I
  Q       Q       H                 W
  |
  /

  Gtr II
  S S S S S S S S S S S S S S S S   S S S S S S S S Q      +S  +E  S
|---------------------------------|-----------------8b10===(8)r(8)---|
|---------------------------------|----------------------------------|
|-------0-3p0-5p0-3p0-------------|---0-3p0-5p0-3p0------------------|
|-0h5-5---------------5p0-3h5-0h3h|=5--------------------------------|
|---------------------------------|----------------------------------|
|---------------------------------|----------------------------------|


  G5
  Q       Q       H                 W
  |
  /

                                                    ~
  S S S S S S S S S S S S S S S S   S S a E a S E S H
|---------------------------------|----------------------|
|---------------------------------|---------2s3h6-6-8----|
|-------0-3p0-5p0-3p0-------------|---0h3h5--------------|
|-0h3h5---------------5p0-3h5-0h3h|=5--------------------|
|---------------------------------|----------------------|
|---------------------------------|----------------------|


  G5
  Q       Q       H                 W
  |
  /

  S S S S S S S S S S S S S S S S   S S S S S S S  S  S S E  E    +E
|---------------------------------|-----------------------------------|
|---------------------------------|-----------------------------------|
|-------0-3p0-5p0-3p0-------------|---0-3p0-5p0---(0)-3p0---[3]b5r(3)-|
|-0h3h5---------------5p0-3h5-0h3h|=5-----------2---------2-----------|
|---------------------------------|-----------------------------------|
|---------------------------------|-----------------------------------|


  G5
  Q       Q       H                  H        Q  Q
  |                                              |
  /                                              x

                                          ~~~
  S S S S S S S S S S S S S S S S   +Q    H.
|---------------------------------|-------------------|
|---------------------------------|-------------------|
|-------0-3p0-5p0-3p0---0-3p0-5p0-|-(0)------------|
|-0h3h5---------------3-----------|-------------------|
|---------------------------------|-------------------|
|---------------------------------|-------------------|


  G5                                                                                  E
   Q           Q           H                         H                        E. S +E E
   |                                                                             |  | |
   /                                                                             x  x o

                                                                              ~~~~
   S  S  S  S  S  S  S  S  S  S  S  S  S  S  S  S    S  S  S  S  S  S  S  S  +H
|-------------------------------------------------|-------------------------------------|
|-------------------------------------------------|-------------------------------------|
|----------12-15p12-17p12-15p12----12-------------|----12-15p12-17p12-15p12-(12)--------|
|-12h15h17----------------------17----15h17-12h15h|=17----------------------------------|
|-------------------------------------------------|-------------------------------------|
|-------------------------------------------------|-------------------------------------|


  G5
   Q           Q           H
   |
   /

   S  S  S  S  S  S  S  S  S  S  S  S  S  S  S  S
|--------------------------------------------------|
|--------------------------------------------------|
|----------12-15p12-17p12-15p12--------------------|
|-12h15h17----------------------17p12-15h17-12h15h=|
|--------------------------------------------------|
|--------------------------------------------------|


                                   E   G5
   H                       E. S +E E    Q           Q           H
                              |  | |    |
                              x  x o    /

                           ~~~
   S  S  S  S  S  S  S  S  H            S  S  S  S  S  S  S  S  S  S  S  S  S  S  S  S
|-------------------------15---------|-------------------------------------------------|
|-------------14s15h18-18------------|-------------------------------------------------|
|----12-15h17------------------------|-12----------15p12-17p12-15p12-------------------|
|-17---------------------------------|----15-16-17-------------------17p12-15h17-12h15h|
|------------------------------------|-------------------------------------------------|
|------------------------------------|-------------------------------------------------|


                                              E
   H                       E.        S  +E      E
                                     |   |      |
                                     x   x      o

                                                ~~~~
   S  S  S  S  S  S  S  S  S  S  S   S   E     +E
|----------------------------------------------------|
|----------------------------------------------------|
|----12-15p12-17p12-------15p12---------15b17r(15)---|
|-17----------------14p12-------14p(12)--------------|
|----------------------------------------------------|
|----------------------------------------------------|


  G5
   Q           Q           H
   |
   /

   S  S  S  S  S  S  S  S  S  S  S  S  S  S  E
|----------------------------------------------|
|-------------------17----------------15----17-|
|----------12-15p12-17p12-15p12-------15p12-17p|
|-12h15h17----------------------15p12----------|
|----------------------------------------------|
|----------------------------------------------|


                     Gm7     G7sus4      Gm7
   H        Q    E   E     W
                     |
                     /

                           Gtr I
        ~~~~                   PM------|
   Q    H       +Q         E E E E E E E E
|----------------------||------------------|
|----------------------||o-----------------|
|-12--[12]-----(12)\---||--3-5-----------3-|
|----------------------||--3-3-----------3-|
|----------------------||o-----------------|
|----------------------||------3-3-3-3-3---|


      G7sus4  Gm7 Dm7     D7sus4              D7sus4      Gm7
        PM|     PM          PM------|           PM------|
  +E  E E E E E E E   +E  E E E E E E E   +E  E E E E E E E
|-------------------|-------------------|--------------------||
|-----------------6-|-(6)-8-----------6-|-(6)-8-------------o||
|-(3)-5-----5p3---5-|-(5)-5-----------5-|-(5)-5-----------3--||
|-(3)-3-----3---0-0-|-(0)-0-0-0-0-0-0-0-|-(0)-0-0-0-0-0-0-3--||
|-------------------|-------------------|-------------------o||
|-------3-3---------|-------------------|--------------------||


      G7sus4          Gm7   G7sus4        Gm7 Dm7
  Gtr II
   E  E E E E     E Q     E  E  E E E     E Q
|-----------------------|-----------------------|
|-----------------------|-----------------------|
|-----5-----------------|-----------------------|
|-------5---3b3.5-5-----|-------5---3b3.5-5-----|
|---------5-------------|---[5]---5-------------|
|-----------------------|-----------------------|
|
| Gtr I
|       PM----------|           PM|         PM
| +E  E E E E     E E E   E  E  E E E     E E E
|-----------------------|-----------------------|
|-----------------------|---------------------6-|
|-(3)-5---------------3-|-3--5------5p====3---5-|
|-(3)-3---------------3-|-3--3------3-------0-0-|
|-----------------------|-----------------------|
|-------3-3-3-----3-3---|-------3-3-------------|


      D7sus4                            Dm7     D7sus4          Gm7
                                                            ~
   E   E   E       E   E       E      Q      E  E E     E E E Q
|-----------------------------------------|------------------------|
|-----------------------------------------|------------------------|
|-----------------------------------------|------------------------|
|---------[3]b3.5-----[3]b3.5-[3]b3.5-----|-------3b3.5---3-3------|
|-----[5]---------[5]---------------------|-----5-------5----------|
|-----------------------------------------|------------------------|
|
|          PM-------------------------|           PM----------|
| +E   E   E       E   E       E      E E   +E  E E     E E E E E
|-----------------------------------------|------------------------|
|-(6)--8--------------------------------6-|-(6)-8------------------|
|-(5)--5--------------------------------5-|-(5)-5---------------3--|
|-(0)--0---0-------0---0-------0------0-0-|-(0)-0-0-----0-0-0-0-3--|
|-----------------------------------------|------------------------|
|-----------------------------------------|------------------------|


  E E E E E     E Q     E E E E E     E Q
|---------------------|---------------------|
|---------------------|---------------------|
|---------------------|---------------------|
|-----5---3b3.5-5-----|-----5---3b3.5-5-----|
|---5---5-------------|---5---5-------------|
|---------------------|---------------------|
|
|     PM----------|         PM|         PM
| E E E E E     E E E   E E E E E     E E E
|---------------------|---------------------|
|---------------------|-------------------6-|
|-3-5---------------3-|-3-5-----5p====3---5-|
|-3-3---------------3-|-3-3-----3-------0-0-|
|---------------------|---------------------|
|-----3-3-3-----3-3---|-----3-3-------------|

[ Tab from: http://www.guitartabs.cc/tabs/j/joe_satriani/crushing_day_tab.html ]
                                                                   ~
   E   E   E       E   E       E       E      E    E      E  E     E +Q.      E
|-----------------------------------------------|--------------------------------|
|-----------------------------------------------|--------------------------------|
|-----------------------------------------------|-----------------------------x--|
|---------[3]b3.5-----[3]b3.5-[3]b3.5-[3]b3.5---|-[3]b3.5---[3]b5==3-(3)r-----x--|
|-----[5]---------[5]-------------------------5-|---------0----------------------|
|-----------------------------------------------|--------------------------------|
|
|          PM-------------------------|                      PM-------------|
| +E   E   E       E   E       E       E      E   +E      E  E     E  E   E E E
|-----------------------------------------------|--------------------------------|
|-(6)--8--------------------------------------6-|-(6)-----8----------------------|
|-(5)--5--------------------------------------5-|-(5)-----5-------------------3--|
|-(0)--0---0-------0---0-------0-------0------0-|-(0)-----0--0-----0--0---0-0-3--|
|-----------------------------------------------|--------------------------------|
|-----------------------------------------------|--------------------------------|


  Gm7   G7sus4      G
  Gtr I
   E     E           E    E          E   E           E    E
   |     |           |    |          |   |           |    |
   /     /           o    /          /   /           /    /

  Gtr II
                                                          |-3-|
   S  S  T  T  T  T  S  S T  T  T T  S S T  T  T  T  S  S S S S
|----------------10-15p10s8-------8-13p8---------10-15p10-------|
|-15----------12---------------10-------------12----------------|
|----12----12---------------12-------------14-------------0h2s3h|
|-------14------------------------------------------------0h2s3h|
|---------------------------------------------------------------|
|---------------------------------------------------------------|


  Gm7 G         Gm7       G                    Dm7
  E   E    E    E          E    E        E     E
  |   |    |    |          |    |        |     |
  /   o    /    /          o    /        /     /

      |3|                       |--3--|
  S S E S  S  S T  T  T T  S S  S  S  S  S  E.
|---------15p10s8-------8-13p8-------10-15p10-----|
|-------x------------10-----------12--------------|
|-5p3p0-----------12-----------14-----------------|
|-5p3p0-------------------------------------------|
|-------------------------------------------------|
|-------------------------------------------------|


         D7sus4D
   +E     E     E     E     E     E     E     E
    |     |     |     |     |     |     |     |
    /     /     o     /     /     /     /     /

    S  S  S  S  S  S  S  S  S  S  S  S  S  S  S  S
|-/20p17-------------------------------------------|
|--------18----------------------------------------|
|-----------19-17p14----------------------------12h|
|--------------------15p12-------------12h14h15----|
|--------------------------13p12-13h15-------------|
|--------------------------------------------------|


  Dm7   D           Dm7   D       Gm7
   E     E     E     E     E  E E E
   |     |     |     |     |  | | |
   /     o     /     /     o  / / /

                           ~~~
   S  S  S  S  S  S  S  S  Q.     S S
|----------------13-17p13-15----------|
|-------13h15h17------------------0---|
|-14h15-----------------------------0-|
|-------------------------------------|
|-------------------------------------|
|-------------------------------------|


     G7sus4      G
  +E  E           E    E          E    E           E     E
   |  |           |    |          |    |           |     |
   /  /           o    /          /    /           /     /

                                                         |-3-|
   E  T  T  T  T  S  S T  T  T T  S S  T  T  T  T  S  S  S S S
|-------------10-15p10s8-------8-13p8----------10-15p10\-------|
|----------12---------------10--------10----10-----------------|
|--0----12---------------10--------------12--------------0h2s3h|
|----14--------------------------------------------------0h2s3h|
|--------------------------------------------------------------|
|--------------------------------------------------------------|


  Gm7 G           Gm7       G                       Dm7
  E   E      E    E          E    E           E     E
  |   |      |    |          |    |           |     |
  /   o      /    /          o    /           /     /

      |-3-|
  S S S S S  S  S T  T  T T  S S  T  T  T  T  S  E.
|-----------15p10s8-------8-13p8----------10-15p10----|
|---------x------------10--------10----10-------------|
|-5p3p0-x-----------12--------------12----------------|
|-5p3p0-----------------------------------------------|
|-----------------------------------------------------|
|-----------------------------------------------------|


         D7sus4D                                     Dm7   D           Dm7      D      Gm7
   +E     E     E     E     E     E     E     E       E     E     E     E        E E E E
    |     |     |     |     |     |     |     |       |     |     |     |        | | | |
    /     /     o     /     /     /     /     /       /     o     /     /        o / / /

                                                                                 ~~
    S  S  S  S  S  S  S  S  S  S  S  S  S  S  S  S    S  S  S  S  S  S  S  S  a  H
|-/20p17-------------------------------------------|----------------13-17p13-17s20-------|
|--------18----------------------------------------|-------13h15h17----------------------|
|-----------19-17s14----------------------------12h|=14h15-------------------------------|
|--------------------15p12-------------12-14h15----|-------------------------------------|
|--------------------------13p12h13h15-------------|-------------------------------------|
|--------------------------------------------------|-------------------------------------|


        G7sus4G
  +E     E     E     E     E     E     E     E
   |     |     |     |     |     |     |     |
   /     /     o     /     /     /     /     /

   S  S  S  S  S  S  S  S  S  S  S  S  S  S  S  S
|-22p15-22p15-15-21p15-15-20p15-20p15-15-21p15-15----|
|----------------------------------------------------|
|----------------------------------------------------|
|----------------------------------------------------|
|----------------------------------------------------|
|----------------------------------------------------|


  Gm7   G           Gm7   G                 Dm7
   E     E     E     E     E     E     E     E
   |     |     |     |     |     |     |     |
   /     o     /     /     o     /     /     /

   S  S  S  S  S  S  S  S  S  S  S  S  S  S  S  S
|-22p15-22p15-15-21p15-15-20p15-20p15-15-21p15-15-|
|-------------------------------------------------|
|-------------------------------------------------|
|-------------------------------------------------|
|-------------------------------------------------|
|-------------------------------------------------|


        D7sus4D                                     Dm7   D           Dm7   D                 Gm7
  +E     E     E     E     E     E     E     E       E     E     E     E     E     E     E     E
   |     |     |     |     |     |     |     |       |     |     |     |     |     |     |     |
   /     /     o     /     /     /     /     /       /     o     /     /     o     /     /     /

   S  S  S  S  S  S  S  S  S  S  S  S  S  S  S  S    S  S  S  S  S  S  S  S  S  S  S  S  S  S  S  S
|-22p15-15-21p15-15-20p15----20p15----18p15-------|-18h20p18-15-------18-20p18-15-------------------|
|-------------------------18-------18-------18p15-|-------------20-15-------------20p15-18-20p18p15-|
|-------------------------------------------------|-------------------------------------------------|
|-------------------------------------------------|-------------------------------------------------|
|-------------------------------------------------|-------------------------------------------------|
|-------------------------------------------------|-------------------------------------------------|


        G7sus4G
  +E     E     E     E     E     E     E     E
   |     |     |     |     |     |     |     |
   /     /     o     /     /     /     /     /

   S  S  S  S  S  S  S  S  S  S  S  S  S  S  S  S
|-------------------------------------------------|
|----15-18h20p18p15----15-18h20p18p15-------20p15-|
|-18----------------18----------------18p15-------|
|-------------------------------------------------|
|-------------------------------------------------|
|-------------------------------------------------|


  Gm7   G           Gm7   G                 Dm7           D7sus4D
   E     E     E     E     E     E     E     E      +E     E     E     E     E     E     E     E
   |     |     |     |     |     |     |     |       |     |     |     |     |     |     |     |
   /     o     /     /     o     /     /     /       /     /     o     /     /     /     /     /

   S  S  S  S  S  S  S  S  S  S  S  S  S  S  S  S    S  S  S  S  S  S  S  S  S  S  S  S  S  S  S  S
|-------------------------------------------------|-------------------------------------------------|
|-18p15----18p15-18p15----20p15-20p15----18p15-20-|-20p15----18p15-20-20p15----18p15----17p15-------|
|-------18-------------18-------------17----------|-------18----------------18-------17-------18-18-|
|-------------------------------------------------|-------------------------------------------------|
|-------------------------------------------------|-------------------------------------------------|
|-------------------------------------------------|-------------------------------------------------|


  Dm7   D           Dm7         D         Gm7         G7sus4
   E     E     E     E            E  E E  E      +E   E E E   E E E   E
   |     |     |     |            |  | |  |       |   | | |   | | |   |
   /     o     /     /            o  / /  /       /   / o /   / / /   /

   S  S  S  S  S  S  S      +S   +Q    E  E      +E   E E E   E E E   E
|----------------------------------------------|------3-3-----3-3-----3-|
|-------17-15-------17b18==(17)r(17)---x\------|------3-3-5b6-3-3-----3-|
|-14-17-------17-14-17b19==(17)r(17)---x\-5b7==|=(5)r-----5b6-----5b7---|
|----------------------------------------------|------------------------|
|----------------------------------------------|------------------------|
|----------------------------------------------|------------------------|


  GmG     GmG       Dm7         D7sus4
  E E   E E E   E E   E   +E     E  E     E  E E E   E
  | |   | | |   | |   |    |     |  |     |  | | |   |
  / o   / / o   / /   /    /     /  o     /  / / /   /

  E E   E E E   E E   E    E  A  E  E  A  E  E E E   E
|-3-----3-3-----3-3-----|-13-------12-------10---8-----|
|-3-----3-3-----3-3-----|------------------------------|
|---5b7-----5b7-----/14-|----14s12----12s10----9-------|
|-----------------------|--------------------------/12-|
|-----------------------|------------------------------|
|-----------------------|------------------------------|


  Dm7D        Dm7D        Gm7               G7sus4G
   E  E     E  E   E  E E  E        +E       E      E        E       E     E    E   E
   |  |     |  |   |  | |  |         |       |      |        |       |     |    |   |
   /  o     /  /   o  / /  /         /       /      o        /       /     /    /   /

               ~~~~~~~
                                                             |-3--|
   E  E  A  E  E  +Q    E  E        +S    S  S  S  +E       +E    S  S  S  Q       +E
|--------------------------------|-------15----------------------15-------18b21r==(18)-|
|-----------------------0-18b20==|=(18)r----15-18-(18)b20==(18)r----18p15--------------|
|-10-12-----------------0--------|-----------------------------------------------------|
|-10-12-12s10-10-(10)------------|-----------------------------------------------------|
|-------12s10-10-(10)------------|-----------------------------------------------------|
|--------------------------------|-----------------------------------------------------|


  Gm7   G          Gm7  G             Dm7       D7susD
   E    E     E    E     E    E     E E   +E    E     E    E        E    E     E    E
   |    |     |    |     |    |     | |    |    |     |    |        |    |     |    |
   /    o     /    /     o    /     / /    /    /     o    /        /    /     /    /

                                    ~~
   |---3---|  |---3---|  |---3---|         |---3---|  |---3---|     |---3---|  |---3---|
   E  E    E  E  E    E  E  E    E  Q      E  E    E  E  E    E  A  E  E    E  E  E    E
|-15------15----------------------------|-18-15---------------------------------------------|
|----18------18p15------15--------------|---------18-15---------16s18-15--------------------|
|--------------------18----18p==17-15---|---------------17---15------------17-15------------|
|---------------------------------------|----------------------------------------17---15----|
|---------------------------------------|---------------------------------------------------|
|---------------------------------------|---------------------------------------------------|


  Dm7      D          Dm7  D
      E    E     E    E     E E   E      E
      |    |     |    |     | |   |      |
      /    o     /    /     o /   /      o

                            ~~
      |---3---|  |---3---|
   A  E  E    E  E  E    E  Q    +S   E.
|------------------------------------------|
|------------------------------------------|
|-16s17-15---------------------------------|
|------------17-15-------------------------|
|------------------17---15-13---(13)-------|
|------------------------------------15\---|


  Eb5         Eb5                   Eb6         Eb5
  E   E   E   E   E   E   E   E     E   E   E   E   E   E   E   E
  |   |   |   |   |   |   |   |     |   |   |   |   |   |   |   |
  /   o   /   /   o   /   /   /     /   o   /   /   o   /   /   /

  S S S S S S S S S S S S S S S S   S S S S S S S S S S S S S S S S
|---------------------------------|-----------------------------------|
|---------------------------------|-----------------------------------|
|---------------------------------|-----------------------------8-5---|
|-------------------------------3-|-----3-5---3-5-7-3-5-7-8-5-7-------|
|-------3-----3-----3-5-6-3-5-6---|-5-6-----6-------------------------|
|-3-5-6---5-6---5-6---------------|-----------------------------------|


  Eb5         Eb5                    Eb5              Eb5
  E   E   E   E   E   E   E    E     E     E     E     E     E     E     E    E
  |   |   |   |   |   |   |    |     |     |     |     |     |     |     |    |
  /   o   /   /   o   /   /    /     /     o     /     /     o     /     /    /

                                                                         |---3---|
  S S S S S S S S S S S S S S  S S   S  S  S  S  S  S  S  S  S  S  S  S  E  E    E
|----------------------------------|-----------------------------------------------|
|-----------------------6--------8-|---------10-------10-11----10-11-13-10-11---13-|
|-----5-----5-7-8-5-7-8---7-8-10---|-8-10-12----10-12-------12---------------------|
|-7-8---7-8------------------------|-----------------------------------------------|
|----------------------------------|-----------------------------------------------|
|----------------------------------|-----------------------------------------------|


  F5               F5
   E    E     E    E     E    E     E    E
   |    |     |    |     |    |     |    |
   /    o     /    /     o    /     /    /

   |---3---|  |---3---|  |---3---|  |---3---|
   E  E    E  E  E    E  E  E    E  E  E    E
|---------13-15-17---13-15-17---18-15-17------|
|-15-16------------------------------------18-|
|---------------------------------------------|
|---------------------------------------------|
|---------------------------------------------|
|---------------------------------------------|


  F5                    F5
   E    E     E    E     E    E     E    E
   |    |     |    |     |    |     |    |
   /    o     /    /     o    /     /    /

   |---3---|  |---3---|  |---3---|  |---3---|
   E  E    E  E  E    E  E  E    E  E  E    E
|-15------------------------------------------|
|----16---18-15-16------15--------------------|
|--------------------17----15---17-14-15---12-|
|---------------------------------------------|
|---------------------------------------------|
|---------------------------------------------|


  F5                  F5                           F5               F5
   E    E     E       E     E    E     E    E       E    E     E    E     E    E     E E
   |    |     |       |     |    |     |    |       |    |     |    |     |    |     | |
   /    o     /       /     o    /     /    /       /    o     /    /     o    /     / /

                                                                                     ~~
   |---3---|  |----3-----|  |---3---|  |---3---|    |---3---|  |---3---|  |---3---|
   E  E    E  S  S  E    E  E  E    E  E  E    E    E  E    E  E  E    E  E  E    E  Q
|----15p==11-15----------------------------------|----------------------------------------|
|---------------15p11---------15-----------------|----------------------------------------|
|-14--------------------14-12------15-14-12------|----14---12-----------------------------|
|---------------------------------------------13-|-12---------13p12-----------------------|
|------------------------------------------------|--------------------13-12---------------|
|------------------------------------------------|--------------------------13---11-13----|


  Eb5              Eb5                                Eb6               Eb5
   E     E    E     E        E     E     E     E       E     E     E     E     E     E     E     E
   |     |    |     |        |     |     |     |       |     |     |     |     |     |     |     |
   /     o    /     /        o     /     /     /       /     o     /     /     o     /     /     /

   S  S  S  S S  S  S  a  S  S  S  S  S  S  S  S  S    S  S  S  S  S  S  S  S  S  S  S  S  S  S  S  S
|-15p11-15p11---17p13-------15p11-15p11-17-17p13----|-18p15-18p15----20p17----18p15-18p15----20p17----|
|-------------x-------13s11----------------------13-|-------------18-------16-------------18-------18-|
|---------------------------------------------------|-------------------------------------------------|
|---------------------------------------------------|-------------------------------------------------|
|---------------------------------------------------|-------------------------------------------------|
|---------------------------------------------------|-------------------------------------------------|


  Eb5               Eb5
   E     E     E     E     E     E     E     E
   |     |     |     |     |     |     |     |
   /     o     /     /     o     /     /     /

   S  S  S  S  S  S  S  S  S  S  S  S  S  S  S  S
|-22p18-22p18----20p17----18p15-18p15----20p17-------|
|-------------18-------16-------------18-------16----|
|----------------------------------------------------|
|----------------------------------------------------|
|----------------------------------------------------|
|----------------------------------------------------|


  Eb5               Eb5
   E     E     E     E     E     E     E     E
   |     |     |     |     |     |     |     |
   /     o     /     /     o     /     /     /

   S  S  S  S  S  S  S  S  S  S  S  S  S  S  S  S
|-18p15-18p15----17p13----15p11-15p11----15p11----|
|-------------16----------------------11-------11-|
|----------------------15-------------------------|
|-------------------------------------------------|
|-------------------------------------------------|
|-------------------------------------------------|


  F5            F5                              F5                 F5
    E  E      E  E       E   E E   E              E     E     E    E     E  E       E   E
    |  |      |  |       |   | |   |              |     |     |    |     |  |       |   |
    /  o      /  /       o   / /   /              /     o     /    /     o  /       /   /

                         ~~~~~                                           ~~
                                                  |---3----|  |---3---|
    E  E      E  E      +Q     E   S      +S     +E   E    E  E  E    E  E  Q          +E
|-/18-18pb20-18-18b20==(18)r---x\-17b18==(17)r|=(17)-15---------------------------------------|
|---------------------------------------------|-----------18-16p15---------16b17.5====(16)r---|
|---------------------------------------------|----------------------17-----------------------|
|---------------------------------------------|-------------------------15--------------------|
|---------------------------------------------|-----------------------------------------------|
|---------------------------------------------|-----------------------------------------------|


  F5                  F5                              F5                    F5
  Gtr I
   E    E        E    E        E    E     E    E       E    E     E    E     E     E E E
   |    |        |    |        |    |     |    |       |    |     |    |     |     | | |
   /    o        /    /        o    /     /    /       /    o     /    /     /     o / /

   |---3---|     |---3---|     |---3---|  |---3---|    |---3---|  |---3---|
   E  E    E     E  E    E     E  E    E  E  E    E    E  E    E  E  E    E  H
|-13------------13------------13--------------------|---------15----13-------------------||
|----16---15b16----16---15b16----16---15-13-16---13-|----13------13------13-16b18========||
|---------------------------------------------------|-14---------------------------------||
|---------------------------------------------------|------------------------------------||
|---------------------------------------------------|------------------------------------||
|---------------------------------------------------|------------------------------------||
|
|  W                                                   W
|---------------------------------------------------|------------------------------------||
|---------------------------------------------------|------------------------------------||
|---------------------------------------------------|------------------------------------||
|---------------------------------------------------|------------------------------------||
|---------------------------------------------------|------------------------------------||
|---------------------------------------------------|------------------------------------||


 Interlude
  C5
    W                          W
                  ~~~~
   +Q.      +E   +H           +H..              S      +S
|--------------------------|----------------------------------|
|-(16)r====(16)-(16)-------|-(16)--------------15b16==(15)r===|
|--------------------------|----------------------------------|
|--------------------------|----------------------------------|
|--------------------------|----------------------------------|
|--------------------------|----------------------------------|
|
| Gtr I
|      PM|        PM-----|         PM|   PM----|
|   E  E E   E    E  E E E     E   E E E E E E  E
|--------------------------|----------------------------------|
|--------------------------|----------------------------------|
|---5--------5-------------|---5-------5----------------------|
|---5--------5-------------|---5-------5----------------------|
|---3--3-3---3----3--3-3-3-|---3---3-3-3-3-3-3--3-------------|
|--------------------------|----------------------------------|


  (Cb5)
    ~~~~~~~~~~~~~~~~~~~~~~~~~
   +W                   +H..            S      +S
|--------------------|-----------------------------|
|-(15)---------------|-(15)------------13b15==(13)r|
|--------------------|-----------------------------|
|--------------------|-----------------------------|
|--------------------|-----------------------------|
|--------------------|-----------------------------|
|
|      PM|   PM----|         PM|   PM---------|
|   E  E E E E E E E     E   E E E E E  E       E
|--------------------|-----------------------------|
|--------------------|-----------------------------|
|---5------5---------|---5-------5-----------------|
|---4------4---------|---4-------4-----------------|
|---3--3-3-3-3-3-3-3-|---3---3-3-3-3-3--3-------3--|
|--------------------|-----------------------------|


  C5
    ~~~~~~~~~~~~~~~~~~~~~~~~
   +W                   +H.            +E     E
|--------------------|---------------------------|
|-(13)---------------|-(13)-----------(13)\------|
|--------------------|----------------------/12--|
|--------------------|---------------------------|
|--------------------|---------------------------|
|--------------------|---------------------------|
|
|      PM|   PM----|        PM|   PM--------|
|   E  E E E E E E E     E  E E E E E   E     E
|--------------------|---------------------------|
|--------------------|---------------------------|
|---5------5---------|---5------5----------------|
|---5------5---------|---5------5----------------|
|---3--3-3-3-3-3-3-3-|---3--3-3-3-3-3---3-----3--|
|--------------------|---------------------------|


  (Cb5)                          N.C.
   W                           W
                                            \1.5
         ~~~~~~~~~~
   Q    +Q     +Q.      +E     A A   H     +H
|----------------------------|-------------------------||
|----------------------------|-------------------------||
|-11---(11)---(11)-----(11)/-|-----[11]---(11)---------||
|----------------------------|---x---------------------||
|----------------------------|-x-----------------------||
|----------------------------|-------------------------||
|
|    PM|        PM-----|
|  E E   E  E   E  E E   E     E E   E  E   E    E E E
|----------------------------|-------------------------||
|----------------------------|-------------------------||
|--5--------5----------------|-5-----------------------||
|--4--------4----------------|-4-----------------------||
|--3-3---3--3---3--3-3---3---|-3-----------------0-1-2-||
|----------------------------|---0---1--2---3----------||


 Verse
  C5     C5           C5     C5
  Gtr I
  E E  E E E E E E     E E E E  E  E E E
  | |  | | | | | |     | | | |  |  | | |
  / o  / / o / / /     / o / /  o  / / /

       ~~~~~~~~~~~~~~~~~~          ~~
  H A  H               H        A  H
|-------------------|---------------------|
|-------------------|-13-------13s16------|
|---5s12------------|---------------------|
|-------------------|---------------------|
|-------------------|---------------------|
|-------------------|---------------------|
|
| W                      W
|-------------------|---------------------|
|-------------------|---------------------|
|-------------------|---------------------|
|-------------------|---------------------|
|-------------------|---------------------|
|-------------------|---------------------|


  D5   D5            D5          D5      A
   E E E E E E E E   E   E  E    E E E E E
   | | | | | | | |   |   |  |    | | | | |
   / o / / o / / /   /   o  /    / o / / o

                     \2/    \1.5
   ~~
   W                 Q     +H.
|------------------|-----------------------|
|------------------|-----------------------|
|-14---------------|-0-----(0)-------------|
|------------------|-----------------------|
|------------------|-----------------------|
|------------------|-----------------------|


  C5    C5                 C5     C5             D5      D5
  E E E E  E      E E E     E E E E  E  E E E     E  E E E E E  E E
  | | | |  |      | | |     | | | |  |  | | |     |  | | | | |  | |
  / o / /  o      / / /     / o / /  o  / / /     /  o / / o /  / /

           \2.5/
                  ~~~~~~~~~~~~          ~~~~~~~~~~~~~
  E E Q    A      H         H        A  H         H.            Q
|------------------------|---------------------|--------------------|
|------------------------|-13-------13s16------|--------------------|
|-x-------10s====12------|---------------------|-14------------12---|
|------------------------|---------------------|--------------------|
|------------------------|---------------------|--------------------|
|------------------------|---------------------|--------------------|


  D5      D5      A   C5    C5
   E  E E E E E E E   E E E E  E    E E E
   |  | | | | | | |   | | | |  |    | | |
   /  o / / o / / o   / o / /  o    / / /

   \1                          \5/
   ~~~                              ~~~~~~~~
   W                  E E Q    A    H
|-------------------|----------------------|
|-------------------|----------------------|
|-11----------------|-x-------10s==12------|
|-------------------|----------------------|
|-------------------|----------------------|
|-------------------|----------------------|


  C5     C5             D5     D5          D5      D5
   E E E E  E  E E E     E E E E E E E E    E E  E E  E E  E E
   | | | |  |  | | |     | | | | | | | |    | |  | |  | |  | |
   / o / /  o  / / /     / o / / o / / /    / o  / /  o /  / /

 ~~~~          ~~~~~~~~~~~~~~~~~~~~~~~~~~~~~~~        ~~
   H        a  H         W                  Q    Q    Q    Q
|---------------------|------------------|---------------------||
|-13-------13s16------|------------------|----------------15---||
|---------------------|-14---------------|-14---15---17--------||
|---------------------|------------------|---------------------||
|---------------------|------------------|---------------------||
|---------------------|------------------|---------------------||


 Chorus
  Gm      Gm           Eb    Eb      Eb           F
   E  E E  E +E   E  E  E     E  E E  E  +E  E  E E
   |  | |  |  |   |  |  |     |  | |  |   |  |  | |
   /  o /  /  /   /  x  o     /  o /  /   /  /  x o

  Gtrs II, III
   ~~~            ~~~~        ~~~
   Q.      a  E  +Q     Q     Q.      E  +Q     Q
|----------------------15--|------------------------|
|---------13s15-(15)-------|-18------16-(16)---15---|
|--------------------------|------------------------|
|-17-----------------------|------------------------|
|--------------------------|------------------------|
|--------------------------|------------------------|


  F          F               F        F           G
   E     E E  E  +E  E E E     E  E E  E +E  E  E  E
   |     | |  |   |  | | |     |  | |  |  |  |  |  |
   /     o /  /   /  / x o     /  o /  /  /  /  x  o

         ~~       ~~~~~~~~~~~~~~~~
   E     Q    E  +H           +Q.      E  E  E  E  E
|--------------------------|-------------------------|
|--------------------------|-------------------15----|
|-17b19r17---17-(17)-------|-(17)-----14-15-17----15-|
|--------------------------|----------------------17-|
|--------------------------|-------------------------|
|--------------------------|-------------------------|


  Gm       Gm           Eb      Eb      Eb           F
    E  E E E  +E   E  E  E       E  E E  E  +E  E  E E
    |  | | |   |   |  |  |       |  | |  |   |  |  | |
    /  o / /   /   /  x  o       /  o /  /   /  /  x o

               ~~~~~~~           ~~~~~~~~~~~~~~~
   +Q.         E  +Q     Q       Q.      E  +Q     Q
|------------/15-(15)---17b18-|-17------15-(15)---13---|
|------------/15-(15)---18b20-|-18------16-(16)---15---|
|-(15)------------------------|------------------------|
|-(17)------------------------|------------------------|
|-----------------------------|------------------------|
|-----------------------------|------------------------|


                                     D.S. al Coda
  F            F               F        F        G
   E      E  E  E  +E  E E E     E  E E E +E E E E
   |      |  |  |   |  | | |     |  | | |  | | | |
   /      o  /  /   /  / x o     /  o / /  / / x o

                ~~~~~~~~~~~~~~~~~~~~
   E     +Q     E  +H           +W
|----------------------------|----------------------||
|-16b18r(16)---16-(16)-------|-(16)-----------------||
|-17b19r(17)---17-(17)-------|-(17)-----------------||
|----------------------------|----------------------||
|----------------------------|----------------------||
|----------------------------|----------------------||


  &
  D        D        E     Em      Em              C
  Gtr I
    E  E E E +E E E E      E  E E  E  +E  E  E    E
    |  | | |  | | | |      |  | |  |   |  |  |    |
    /  o / /  / / x o      /  o /  /   /  /  x    o

  Gtrs II, III
    ~~~~~~~~~~~~~~~~~~~~~~~~~~         ~~~~
    W                      Q.      E  +Q     Q
|-(17)----------------||----------19-(19)---22b24---|
|---------------------||o-17------------------------|
|---------------------||--------------------/9------|
|--(7)----------------||-----------9--(9)-----------|
|---------------------||o--7------------------------|
|---------------------||----------------------------|


  C       C         D      Dsus4   D               Dsus2     D        E
   E  E E  E  +E  E  E E    E  E E  E  +E  E E E    E    E E E +E E E E
   |  | |  |   |  |  | |    |  | |  |   |  | | |    |    | | |  | | | |
   /  o /  /   /  /  o /    /  o /  /   /  / o /    /    o / /  / / x o

   ~~~~~~~~~~~~~~~                  ~~~~~~~                     ~~
   Q.      E  +Q     Q      E  Q    E  +H           H           H
|-22------20-(20)---19---|-19s17---17-(17)-------|------------------------|
|------------------------|-----------------------|-19b20-------19---------|
|--7---------------------|-----------------------|------------------------|
|---------10-(10)----9---|--9s=7----7--(7)-------|------------------------|
|------------------------|-----------------------|--9b10--------9---------|
|------------------------|-----------------------|------------------------|


  Em      Em               C   C       C         D
   E  E E   E  +E  E  E    E    E  E E  E  +E  E  E E
   |  | |   |   |  |  |    |    |  | |  |   |  |  | |
   /  o /   /   /  /  x    o    /  o /  /   /  /  o /

   ~~~~~~~~~~~~~~~~             ~~~~~~~~~~~~~~~
   Q.       E  +Q     Q         Q.      E  +Q     Q
|---------/19-(19)---22b24---|-22------20-(20)---19---|
|-17-------------------------|------------------------|
|--------------------/9------|--7---------------------|
|----------/9--(9)-----------|---------10-(10)----9---|
|--7-------------------------|------------------------|
|----------------------------|------------------------|
|
| Gtrs IV, V
|                               ~~~         ~~~~
|  H            Q     Q         Q.      E  +Q     Q
|--------------------17b19---|-17------15-(15)--------|
|--------------------19b20---|-19------17-(17)---19---|
|----------------------------|-------------------19---|
|----------------------------|------------------------|
|----------------------------|------------------------|
|----------------------------|------------------------|


  Dsus4   D               Dsus2    D
   E  E E  E  +E  E E E     E  E E E +E E E E
   |  | |  |   |  | | |     |  | | |  | | | |
   /  o /  /   /  / x /     /  o / /  / / x x

           ~~~~~~~~~~~~~~~~~~~~
   E  Q    E  +H           +W
|-19s17---17-(17)-------|-(17)------------------||
|-----------------------|----------------------o||
|-----------------------|-----------------------||
|--9s=7----7--(7)-------|--(7)------------------||
|-----------------------|----------------------o||
|-----------------------|-----------------------||
|
|          ~~~~~~~~~~~~~~~~~~~~
|  E  Q    E  +H           +W
|-----------------------|-----------------------||
|-19s17---17-(17)-------|-(17)-----------------o||
|-19s17---17-(17)-------|-(17)------------------||
|-----------------------|-----------------------||
|-----------------------|----------------------o||
|-----------------------|-----------------------||


Duration Legend
---------------
W - whole; H - half; Q - quarter; E - 8th; S - 16th; T - 32nd; X - 64th; a - acciaccatura
+ - note tied to previous; . - note dotted; .. - note double dotted
Uncapitalized letters represent notes that are staccato (1/2 duration)
Irregular groupings are notated above the duration line
Duration letters will always appear directly above the note/fret number it represents the
duration for.  Duration letters with no fret number below them represent rests.  Multi-
bar rests are notated in the form Wxn, where n is the number of bars to rest for.  Low
melody durations appear below the staff

Tablature Legend
----------------
 h   - hammer-on
 p   - pull-off
 b   - bend
 pb  - pre-bend
 r   - bend release (if no number after the r, then release immediately)
 /\  - slide into or out of (from/to "nowhere")
 s   - legato slide
 S   - shift slide
  - natural harmonic
[n]  - artificial harmonic
n(n) - tapped harmonic
 ~   - vibrato
 tr  - trill
 T   - tap
 TP  - trem. picking
 PM  - palm muting
\n/  - tremolo bar dip; n = amount to dip
 \n  - tremolo bar down
 n/  - tremolo bar up
/n\  - tremolo bar inverted dip
 =   - hold bend; also acts as connecting device for hammers/pulls
   - volume swell (louder/softer)
 x   - on rhythm slash represents muted slash
 o   - on rhythm slash represents single note slash

Misc Legend
-----------
 |  - bar
||  - double bar
||o - repeat start
o|| - repeat end
*|  - double bar (ending)
 :  - bar (freetime)
 $  - Segno
 &  - Coda
Tempo markers -  = BPM(8/16=s8/s16), where s8 = swing 8ths, s16 = swing 16ths


***************************************************************************************
* Generated using Power Tab Editor by Brad Larsen - http://powertab.guitarnetwork.org *
***************************************************************************************
Comments