Joe Satriani - Always With Me Always With You Live Chords & Tabs

 

Always With Me Always With You Live Chords & Tabs

Joe Satriani Chords & Tabs

Version: 1 Type: Bass Tab 0 ratings
1 star 2 stars 3 stars 4 stars 5 stars
comments

Always With Me Always With You Live Bass Tab

Always with Me, Always with You   "LIVE"
By Joe Satriani


This one appears on the album "TIME MACHINE" CD2 LIVE
The Bass playing is quite different in the Live version than the studio
version.
I like the Live version More.


I play it on 4-String Bass Guitar with standard tune.
Here, it is exactly like what you hear.

---------------------------------------------------------------------------------------------
                                  Always with Me, Always with You   "LIVE"
						    BY
					       JOE SATRIANI


INTRO,
Play the same time the same way with Satriani,

  Play Muffle					          Play 3 Times
|-------------------|-----------------|-----------------|--------------|
|-------13-14-13----|-----13-14-13----|-----11-13-11----|----9-11-9----|
|-14-14----------14-|--14----------14-|--11----------11-|--9--------9--|
|-------------------|-----------------|-----------------|--------------|

|--------------|-----------------|---------------|-------------|---------|
|----9-11-9----|-----11-13-11----|-----9-11-9----|---8-11-8----|----7/9--|
|--9--------9--|--11----------11-|--9----------9-|-9--------9--|---------|
|--------------|-----------------|---------------|-------------|---------|


Solo Enter,

|---------|----------|----------|-----------|
|---------|----------|----------|-----------|
|---------|----------|----------|-----------|
|---------|----------|-0--------|-2---------|

|---------|----------|----------|-----------|
|---------|----------|----------|-----------|
|---------|----------|----------|-----------|
|--7------|-(7)------|-0--------|-2---------|

|---------|----------|----------|-----------|
|---------|----------|----------|-----------|
|---------|----------|----------|-----------|
|--7------|-(7)------|-0--------|-2---------|

|---------|----------|----------|-----------|
|---------|----------|----------|-----------|
|---------|----------|----------|-----------|
|--4------|--0-------|-2--------|-(2)-------|

				 Play 3 times
|---------|----------|----------|-----------|
|---------|----------|----------|-----------|
|---------|----------|----------|-----------|
|--7------|-(7)------|-0--------|-2---------|

|---------|----------|----------|-----------|
|---------|----------|----------|-----------|
|---------|----------|----------|-7/9--9----|
|--4------|--0-------|-2--------|-----------|

|---------|----------|----------|-----------|
|---------|----------|----------|-----------|
|---------|----------|----------|-----------|
|--7------|-(7)------|-0--------|-2---------|
		 		 Play 2 times
|---------|----------|----------|-----------|
|---------|----------|----------|-----------|
|---------|----------|----------|-----------|
|--7------|-(7)------|-7^0------|-2---------|

|---------|----------|----------|-----------|
|---------|----------|----------|-----------|
|---------|----------|----------|-7/9--9----|
|--3------|--0-------|-0^2------|-----------|

|---------|----------|----------|-----------|
|---------|----------|----------|-----------|
|---------|----------|----------|--7/9--(9)-|
|--2/3----|--0-------|-2--------|-----------|

Enter with Drums after 3 snares,
[ Tab from: http://www.guitartabs.cc/tabs/j/joe_satriani/always_with_me_always_with_you_live_btab.html ]
|---------|----------|----------|-----------|
|---------|----------|----------|-----------|
|---------|----------|----------|-----------|
|--7------|-(7)------|-7^0------|-2---------|

|---------|----------|----------|-----------|
|---------|----------|----------|-----------|
|---------|----------|----------|-----------|
|-0^7-----|-(7)------|-7^0------|-2---0^2-0-|

|---------|----------|----------|-----------|
|---------|----------|----------|-----------|
|---------|----------|----------|-----------|
|--7------|-(7)----7-|-7^0------|-2---------|

|---------|----------|----------|-----------|
|---------|----------|----------|-----------|
|---------|----------|----------|-7/9--9----|
|--4------|--0-------|-2--------|-----------|

Tapping Part,
|---------|----------|----------|-----------|
|---------|----------|----------|-----------|
|---------|----------|----------|-----------|
|--7------|-(7)------|-7^0------|-2---------|

|---------|----------|----------|-----------|
|---------|----------|----------|-----------|
|---------|----------|----------|-----------|
|--7------|-(7)------|-7^0--2/4-|-2---0^2-0-|

|---------|----------|----------|-----------|
|---------|----------|----------|-----------|
|---------|----------|----------|-----------|
|--7------|-(7)------|-7^0--2/4-|-2---------|

|---------|----------|----------|-----------|
|---------|----------|----------|-----------|
|---------|----------|----------|-7/9--9----|
|--4------|--0-------|-2-----0--|-----------|


		            Play 3 times
|---------|-----------|----------|------------|
|---------|-----------|----------|------------|
|---------|-----------|-6--9--7--|-7/9--6-----|
|--7------|-7-7----7--|----------|-------0-7--|

|----------------|-------------|
|----------------|-------------|
|----------------|-------------|
|--4----4-4--4^0-|--(0)--------|

|---------|----------|----------|-----------|
|---------|----------|----------|-----------|
|---------|----------|----------|-----------|
|---------|----------|-0--------|-2---------|

|---------|----------|----------|-----------|
|---------|----------|----------|-----------|
|---------|----------|----------|-----------|
|--7------|-(7)------|-0--------|-2---------|

|---------|----------|----------|-----------|
|---------|----------|----------|-----------|
|---------|----------|----------|-----------|
|--7------|-(7)------|-0--------|-2---------|

|---------|----------|----------|-----------|
|---------|----------|----------|-----------|
|---------|----------|----------|-7/9--9----|
|--4------|--0-------|-2--------|-----------|

Outro,
|---------|----------|----------|-----------|
|---------|----------|----------|-----------|
|---------|----------|----------|-----------|
|--7------|-(7)------|-7^0------|-(0)-------|

|---------|----------|----------|-----------|
|---------|----------|----------|-----------|
|---------|----------|----------|-----------|
|--7------|-(7)------|--7-------|-(7)-------|

|---------|----------|----------|-----------|
|---------|----------|----------|-----------|
|---------|----------|----------|-----------|
|--7------|-(7)------|--7-------|-(7)-------|

|----------------------|
|----------------------|
|----------------------|
|----7/12------7-(7)---|

Enjoy it...!!


Tabed By HAZEM AMMARI - Bassist of Jordanian Heavy Metal Band "Black Coffin"
For any questions or recommendations please E-mail me at haz_met@hotmail.com
Comments