Joe Robinson - Too Late Chords & Tabs

 

Too Late Chords & Tabs

Joe Robinson Chords & Tabs

Version: 1 Type: Tab 0 ratings
1 star 2 stars 3 stars 4 stars 5 stars
comments

Too Late Tab

Too Late?

Intro/Verse (once played intro, then repeat w/ lryics for the verse)

e|------------|------------|------------|------2-2-|
B|-2------3---|-2------2---|-3------0---|-(0)--3-3-|
G|---2--------|---2--------|---2--------|------2-2-|
D|-----0------|-----0------|-----0------|----------|
A|------------|------------|------------|----------|
E|------------|------------|------------|----------|

			   		   *			*alternate 
e|------------|------------|------------|----------|    	|------1-1---|
B|-2------3---|-2------2---|-3------0---|-(0)------|		|-(0)--1-1---|
G|---2--------|---2--------|---2--------|----------|		|------2-2---|
D|-----0------|-----0------|-----0------|----------|		|------3-3---|
A|------------|------------|------------|----------|		|------------|
E|------------|------------|------------|----------|		|------------|



ChorusI						      (repeat)
e|-----0-0-0-------1-1-1-|-------------------0-0-0-----|
B|-----1-1-1-------1-1-1-|-------------------1-1-1----o|
G|-----2-2-2-------2-2-2-|-------1-1-1-------0-0-0-----|
D|-2-2-2-2-2-2-3-3-3-3-3-|-3-----2-2-2-------2-2-2-----|
A|-----------------------|---2-2-2-2-2-2-3-3-3-3-3-3--o|
E|-----------------------|-----------------------------|



ChorusII
e|-2-2-2-3-----3-3-3-3-3--2-2-2-2---0-0-0---|
B|-3-3-3-3-----3-3-3-3-3--3-3-3-3---1-1-1---|
G|-2-2-2-2-----0-0-0-0----2-2-2-2-2-0-0-0---|
D|-------------0-0-0-0--------------2-2-2---|
A|-------------2-2-2-2--------------3-3-3---|
E|-------------3-3-3-3----------------------|

e|-2-2-2-3-----3-3-3-3-3--2-2-2-2---1-1-1-|-(1)----|
B|-3-3-3-3-----3-3-3-3-3--3-3-3-3---1-1-1-|-(1)----|
G|-2-2-2-2-----0-0-0-0----2-2-2-2-2-2-2-2-|-(2)----|
D|-------------0-0-0-0--------------3-3-3-|-(3)----|
A|-------------2-2-2-2--------------3-3-3-|-(3)----|
E|-------------3-3-3-3--------------1-1-1-|-(1)----|			


Bridge/Verse 2 (on bridge ad lib) (play once for bridge, once for verse 2)
e|------------|------------|------------|------2-2-|
B|-2------3---|-2------2---|-3------0---|-(0)--3-3-|
G|---2--------|---2--------|---2--------|------2-2-|
D|-----0------|-----0------|-----0------|----------|
A|------------|------------|------------|----------|
E|------------|------------|------------|----------|

			   		   *			*alternate 
e|------------|------------|------------|----------|    	|------1-1---|
B|-2------3---|-2------2---|-3------0---|-(0)------|		|-(0)--1-1---|
G|---2--------|---2--------|---2--------|----------|		|------2-2---|
D|-----0------|-----0------|-----0------|----------|		|------3-3---|
A|------------|------------|------------|----------|		|------------|
E|------------|------------|------------|----------|		|------------|


ChorusI						      (repeat)
e|-----0-0-0-------1-1-1-|-------------------0-0-0-----|
B|-----1-1-1-------1-1-1-|-------------------1-1-1----o|
G|-----2-2-2-------2-2-2-|-------1-1-1-------0-0-0-----|
D|-2-2-2-2-2-2-3-3-3-3-3-|-3-----2-2-2-------2-2-2-----|
A|-----------------------|---2-2-2-2-2-2-3-3-3-3-3-3--o|
E|-----------------------|-----------------------------|


[ Tab from: http://www.guitartabs.cc/tabs/j/joe_robinson/too_late_tab.html ]
ChorusII
e|-2-2-2-3-----3-3-3-3-3--2-2-2-2---0-0-0---|
B|-3-3-3-3-----3-3-3-3-3--3-3-3-3---1-1-1---|
G|-2-2-2-2-----0-0-0-0----2-2-2-2-2-0-0-0---|
D|-------------0-0-0-0--------------2-2-2---|
A|-------------2-2-2-2--------------3-3-3---|
E|-------------3-3-3-3----------------------|

e|-2-2-2-3-----3-3-3-3-3--2-2-2-2---1-1-1-|-(1)----|
B|-3-3-3-3-----3-3-3-3-3--3-3-3-3---1-1-1-|-(1)----|
G|-2-2-2-2-----0-0-0-0----2-2-2-2-2-2-2-2-|-(2)----|
D|-------------0-0-0-0--------------3-3-3-|-(3)----|
A|-------------2-2-2-2--------------3-3-3-|-(3)----|
E|-------------3-3-3-3--------------1-1-1-|-(1)----|			


Solo

(Just a little part of solo…add lib- it is just played octave ((12 frets)) up)

e|---------------|-------------|--------------|
B|-14--------15--|-14-------14-|-15-------12--|
G|----14---------|----14-------|----14----12--|
D|-------12------|-------12----|-------12-----|
A|---------------|-------------|--------------|
E|---------------|-------------|--------------|



Bridge/Verse 3 (once for bridge and once for verse 3)
e|------------|------------|------------|------2-2-|
B|-2------3---|-2------2---|-3------0---|-(0)--3-3-|
G|---2--------|---2--------|---2--------|------2-2-|
D|-----0------|-----0------|-----0------|----------|
A|------------|------------|------------|----------|
E|------------|------------|------------|----------|

			   		   *			*alternate 
e|------------|------------|------------|----------|    	|------1-1---|
B|-2------3---|-2------2---|-3------0---|-(0)------|		|-(0)--1-1---|
G|---2--------|---2--------|---2--------|----------|		|------2-2---|
D|-----0------|-----0------|-----0------|----------|		|------3-3---|
A|------------|------------|------------|----------|		|------------|
E|------------|------------|------------|----------|		|------------|


ChorusI						      (repeat)
e|-----0-0-0-------1-1-1-|-------------------0-0-0-----|
B|-----1-1-1-------1-1-1-|-------------------1-1-1----o|
G|-----2-2-2-------2-2-2-|-------1-1-1-------0-0-0-----|
D|-2-2-2-2-2-2-3-3-3-3-3-|-3-----2-2-2-------2-2-2-----|
A|-----------------------|---2-2-2-2-2-2-3-3-3-3-3-3--o|
E|-----------------------|-----------------------------|


									
ChorusII
e|-2-2-2-3-----3-3-3-3-3--2-2-2-2---0-0-0---|
B|-3-3-3-3-----3-3-3-3-3--3-3-3-3---1-1-1---|
G|-2-2-2-2-----0-0-0-0----2-2-2-2-2-0-0-0---|
D|-------------0-0-0-0--------------2-2-2---|
A|-------------2-2-2-2--------------3-3-3---|
E|-------------3-3-3-3----------------------|

e|-2-2-2-3-----3-3-3-3-3--2-2-2-2---1-1-1-|-(1)----|
B|-3-3-3-3-----3-3-3-3-3--3-3-3-3---1-1-1-|-(1)----|
G|-2-2-2-2-----0-0-0-0----2-2-2-2-2-2-2-2-|-(2)----|
D|-------------0-0-0-0--------------3-3-3-|-(3)----|
A|-------------2-2-2-2--------------3-3-3-|-(3)----|
E|-------------3-3-3-3--------------1-1-1-|-(1)----|


Outro: add lib
e|------------|------------|------------|------2-2-|
B|-2------3---|-2------2---|-3------0---|-(0)--3-3-|
G|---2--------|---2--------|---2--------|------2-2-|
D|-----0------|-----0------|-----0------|----------|
A|------------|------------|------------|----------|
E|------------|------------|------------|----------|

			   		   		Hold out
e|------------|------------|------------|--------|-----2--|    	
B|-2------3---|-2------2---|-3----------|--------|-----3--|		
G|---2--------|---2--------|---2----0---|-(0)----|-0---2--|		
D|-----0------|-----0------|-----0------|--------|--------|		
A|------------|------------|------------|--------|--------|		
E|------------|------------|------------|--------|--------|
Comments