Joe Ely - All Just To Get To You Chords & Tabs

 

All Just To Get To You Chords & Tabs

Joe Ely Chords & Tabs

Version: 1 Type: Tab 0 ratings
1 star 2 stars 3 stars 4 stars 5 stars
comments

All Just To Get To You Tab

   
Ely Joe - All Just To Get To You
Submitted By: Sir P
EMail: asshat@tabberstemple.com


From www.TabbersTemple.com
sir p

Basic chord progression:
| Gb  | B  | B  | B  | B  | Gb | B  | B  | B  |

(the number of measures changes a bit throughout the song, but it
remains just Gb and B)

There's only two changes, one at the "If I could close my eyes" line:
| Bbm  | Ebm  | B   | B   |

and one at the "It's as close as I get to love" line:
| Bbm   Db  | B      | Bbm   Db  | B      | B     |


The solo looks like this:
(played over one time through the basic progression, and one time
through the first change)

s=slide  h=hammer on
---------------------------------------------------------------14-------
---------------------------------------14-------------------14----14----
-9s11-11-11-13-13-13----11s13-13-11-------13----11-13-13-11----------11-
---------------------11-------------11-------11-------------------------
------------------------------------------------------------------------
------------------------------------------------------------------------
[ Tab from: http://www.guitartabs.cc/tabs/j/joe_ely/all_just_to_get_to_you_tab.html ]
/----repeat 4 times----\
----------------14-------14-------------14------------------------------
----14-14----------14-------14-14----------14---------------------------
-13-------13-11-------11----------13-11-------11-13-11-11-11s13---11----
------------------------------------------------------------------------
------------------------------------------------------------------------
------------------------------------------------------------------------

------------------------------------------------------------------------
------------------------------------------------------------------------
-11s10-10---s11-10------------11----13-11----11----11----11----11----11-
--------------------11h13--------13-------13----13----13----13----13----
------------------------------------------------------------------------
------------------------------------------------------------------------

------------------------------------------------------------------------
------------------------------------------------------------------------
-13-11----11----11----11----11-11-13s15---16-15----13-11-----slide down-
-------13----13----13----13---------------------------------------------
------------------------------------------------------------------------
------------------------------------------------------------------------

(You can also tune down one fret and play open chords, where Gb=G, B=C,
Bbm=Bm, Ebm=Em, and Db=D.  The solo is just played one half-step down)

sir p
Comments