Joe - No One Else Comes Close Chords & Tabs

 

No One Else Comes Close Chords & Tabs

Joe Chords & Tabs

Version: 3 Type: Tab 0 ratings
1 star 2 stars 3 stars 4 stars 5 stars
comments

No One Else Comes Close Tab

Artist: Joe
Song: No One Else Comes Close
Album: All That I Am
Transcribed by Daniel LaPel

This was a real b**** of a tab, but I hope you enjoy it...

Standard Tuning

Intro

Guitar 1
|--------------|----------------|------------------|--0---------------|
|-3------1-----|--3------1------|--3-------1---3---|------3---1---0~--|
|------0---0---|-------0----0---|-------2----------|--0---------------|
|----2-------2-|-----2--------2-|-----3------------|------3---2---0~--|
|-3------------|--0-------------|------------------|------------------|
|--------------|----------------|--1---------------|------------------|

Guitar 2
|--------7---8-|----------8h10---8--|--------------|------------------|
|--------------|--------------------|----8/5---8---|------------------|
|--------------|--------------------|--------------|------------------|
|--------------|--------------------|--------------|------------------|
|--------------|--------------------|--------------|------------------|
|--------------|--------------------|--------------|------------------|

Guitar 1
|--------------|----------------|------------------|--3~--------------|
|-3------1-----|--3------1------|--3 -------1------|--0~--------------|
|------0---0---|-------0---0----|--------2-----2---|--0~--------------|  
|----2-------2-|-----2--------2-|-----3----------3-|--0~--------------|
|-3------------|--0-------------|------------------|--2~--------------|
|--------------|----------------|--1---------------|------------------|

Guitar 2
|--------7---8-|----------------|------------------|------------------|
|--------------|------12/8---8--|------------------|------------------|
|--------------|----------------|----9/5---5---5/7-|------------------|
|--------------|----------------|------------------|------------------|
|--------------|----------------|------------------|------------------|
|--------------|----------------|------------------|------------------|
Verse

Guitar 1
|--------------3-|--------------------3--|----------0-----------------|
|-------1---3----|----------1-----3 -----|-------1------1-------------|
|----0-----------|------0----------------|----2-------------2---------|
|----------------|-----------------------|-3--------------------3-----|
|--3-------------|--0--------------------|----------------------------|
|----------------|-----------------------|----------------------------|

Guitar 1
|----------------|----------------|----------------3-|-----------------
|--0----------0--|--1-------3-----|-------1----3-----|----------1-----3 
|----------0-----|----------------|----0-------------|-------0---------
|------0---------|------0---------|------------------|----------------- 
|--2-------------|--0-------2-----|--3---------------|--0--------------
|----------------|----------------|------------------|-----------------

Guitar 1
--3---|--------------0--------------|---------------------------------|
------|----------1-------1----------|---------------------------------|
------|------2---------------2------|--1-------1---2---4-------4------|
------|--3-----------------------3--|------0---------------0----------|
------|-----------------------------|--2-----------3---5--------------|
------|-----------------------------|---------------------------------|

Pre-Chorus

Guitar 1
|-----------------------------|------------------0--------------|
|----------0---1---0----------|----------1-----------1----------|
|------2---------------2------|-----2--------2----------2-------|
|--------------------------0--|----------------------------0----| 
|--0--------------------------|---------------------------------|
|-----------------------------|--4------------------------------|

Guitar 2
|--------5---7---8------------|----7---8---10-------------------|
|----5------------------------|---------------------------------|
|-----------------------------|---------------------------------|
|-----------------------------|---------------------------------|
|-----------------------------|---------------------------------|
|-----------------------------|---------------------------------|

Guitar 1
|-----------------------------|
|----------0---1---0----------|
|------2---------------2------|
|--------------------------0--|
|-----------------------------|
|--3--------------------------|


Guitar 1
|---------------------------------|------------------------|
|------------------3--------------|--------------1---------| 
|----------2-----------2----------|----------2-------2-----|
|------0-------0-----------0------|------3---------------3-|
|------------------------------0--|------------------------| 
|--2------------------------------|--1---------------------|

Guitar 2 
|------8-–-10-–-10h12---------|
|----------------------10-–-10|
|-----------------------------|
|-----------------------------|
|-----------------------------|
|-----------------------------|
[ Tab from: http://www.guitartabs.cc/tabs/j/joe/no_one_else_comes_close_tab_ver_3.html ]
Guitar 1
|-------------------------------------|--------------3------|---------
|----------------------3--------------|--0------------------|--0h1--0~
|--------------2-----------2----------|----------0----------|---------
|----------0-------0-----------0------|------0-----------0--|--0h2--0~
|----------------------------------0--|---------------------|---------
|--1---2------------------------------|--3------------------|---------

Guitar 2
|----------7---8------------------|----------------------------------3
|------------------5---5----------|----------------------------------3
|---------------------------------|----------------------------------0
|---------------------------------|----------------------------------0
|---------------------------------|-----------------------------------
|---------------------------------|-----------------------------------

Chorus

Guitar 1
-|--------------0--------------|------------3--------------|--0-------- 
-|----------1-------1----------|--------0-------0----------|-----------
-|------2---------------2------|----0---------------0------|----------0
-|--3-----------------------3--|------------------------0--|------2---- 
-|-----------------------------|--2------------------------|--3--------
-|-----------------------------|---------------------------|----------- 

Guitar 2 
-|--------8---7----------------|------12-------10-------8-------7----5|
-|--7/8-----------8------------|--/8------/8-------/5-------/5-------5|
-|--------------------7---5---4|--------------------------------------|
-|-----------------------------|--------------------------------------|
-|-----------------------------|--------------------------------------|
-|-----------------------------|--------------------------------------|

Guitar 1
--0--|-----------------|-----------------|-----------------|-----------
-----|--3-----------3--|--1-----------1--|--0-----------0--|----------- 
-----|----------0------|----------0------|----------0------|----------2
-----|------0----------|------0----------|------0----------|------3---- 
-----|--2--------------|--0--------------|-----------------|-----------
-----|-----------------|-----------------|--3--------------|--1--------

Guitar 2 
|------5-------3---------------|------3----------3-----------3-------|
|--/5-------5-------3---1-–-0--|--/5-----5---/3-------3--------------|
|------------------------------|-------------------------/5-------5--|
|------------------------------|-------------------------------------|
|------------------------------|-------------------------------------|
|------------------------------|-------------------------------------|

Guitar 1
----0--------------|
--------1----------|
------------2------| Back to second bar of chorus (Gtr.1 X2), then intro…
----------------3--|
-------------------|
-------------------|

Guitar 2
|------------------------------|--------3--------|------12-------10--
|------------------------------|------3----------|--/8-------/8------
|--4---5p4---------------------|--/4 ------------|-------------------
|------------5---5/7-----------|-----------------|-------------------
|------------------------------|-----------------|-------------------
|------------------------------|-----------------|-------------------

|------8-------7---5--|-------5---3--|
|--/5-----/5-------5--|--/5----------|
|---------------------|--------------| Repeat Lead at Intro Reversed
|---------------------|--------------|
|---------------------|--------------|
|---------------------|--------------|

Guitar 2 
Last Verse
|--8---10---12-------|--7---8---10-----|---------------------|
|----------------10--|--------------8--|---------------------|
|--------------------|-----------------|--7/9/7---5----------|
|--------------------|-----------------|------------5---5/7--|
|--------------------|-----------------|---------------------|
|--------------------|-----------------|---------------------|

|--------------5---7---8--|------7---5-------7-----5--4---5------3----
|----------5--------------|--5----------5-------5-------5-----5-------
|------5------------------|------------------------------------------5 
|--/7---------------------|-------------------------------------------
|-------------------------|-------------------------------------------
|-------------------------|-------------------------------------------

|-------------------|
|--3h5p3------------|
|----------2--------| Repeat Lead for Chorus w/ Variations
|------------5---4--|
|-------------------|
|-------------------|

Leading up to the last verse, the song goes up a note and you play this after the
2nd bar of the chorus…

Guitar 1
|--------------2----------4--|
|----------2-------2------4--|
|-------3--------------3-----|
|----------------------------|
|----------------------------| 
|--4-------------------------| 

Guitar 2 plays same lead just one fret higher…here’s a chance to improvise…

Ending

Guitar 1
|--------------0--|--------------0--|--------------0--|--3------------|
|----------1------|----------1------|----------1------|--0---1~-------|
|------2----------|------0----------|------2----------|--0---0~-------|
|--3--------------|--2--------------|--0--------------|--0---2~-------|
|-----------------|-----------------|-----------------|--2---3~-------|
|-----------------|-----------------|-----------------|---------------|

* Questions, comments, corrections kindly accepted at ivandrago1417@yahoo.com.
Comments