Job For A Cowboy - Suspended By The Throat Chords & Tabs

 

Job For A Cowboy Chords & Tabs

Version: 3 Type: Tab 0 ratings
1 star 2 stars 3 stars 4 stars 5 stars
comments

Suspended By The Throat Tab

   
Suspended by the throat
Tabbed by Diabsoule
Tuning-drop c

I tabbed this out becuase there wasnt a version of this song that I was personally
with. All the other versions dont have any of the timing nor do they have the proper notes.
next best to this tab would be the guitarpro version thats currently rated 5 stars. 
on that! This is guitar 1 because I do not yet have the skill to tab out both. Hope you enjoy.
p.s some of this tab didnt fit :P But its all there still.


Intro x2
|-----|-------------------------------|
|-----|-------------------------------|
|-----|-------------------------------|
|-/12-|0-----7-8--0-3h4p3---7ph-------|
|-/12-|0---5------0-------4-----------|
|-/12-|0----------0-------------------|

|------------------------------------|
|------------------------------------|
|------------------------------------|
|-0-----7-8--------------------------|
|-0---5------------------------------|
|-0----------5-7-8-7-5-4-7-5-4-3-----|
             ...................

verse 1 x6
|--------------------------------------|
|--------------------------------------|
|--------------------------------------|
|--------------------------------------|
|-----------------------3333------3333-|
|-3p2p0-000000000--2222------2222------|

|--------------------------------------|
|--------------------------------------|
|--------------------------------------|
|--------------------------------------|
|-----------------------3333------3333-|
|-3p2p0-000000000--2222------2222------|

verse2 x4
|---------------------------------------------------------|
|---------------------------------------------------------|
|---------------------------------------------------------|
|---------------------------------------------------------|
|---------------------------------------3-2-1-3-2-1-------|
|-33333333366666666555555552222222222---3-2-1-3-2-1-------|
                                        ............

solo
|---------------|
|---------------|
|---------------|
|---------------|
|---------------|
|-3s1s3-6-5-2---|


|---------------------------------------------------------------------------|
|--------------------------------------------------------------------s15s19-|
|---------------------------------------------------------------------------|
|-------------------------8-10-11----------------------------10-11-13-------|
|-----------------8-10-11---------------------------10-11-13----------------|
|---------8-10-11--------------------------10-11-13-------------------------|
|-8-10-11-------------------------10-11-13----------------------------------|

|-----------------------------------------|
|-----------------------------------------|
|-----------------------------------------|
|-0-0-000-0-0-0---0000000-----------------|
|-0-0-000-0-0-0---0000000-----333-----333-|
|-0-0-000-0-0-0---0000000-222-----222-----|

verse3 x4
|--------------------------------------------|
|--------------------------------------------|
|--------------------------------------------|
|-0000000-0-0-000-0-0-0-0000000--------------|
|-0000000-0-0-000-0-0-0-0000000----333---333-|
|-0000000-0-0-000-0-0-0-0000000-222---222----|

chorus x4
|-----------------------------------------------|
|-----------------------------------------------|
|-----------------------------------------------|
|-----------------------------------------------|
|-----5h7p5-4h5p4-5h7p5------5h7p5-4h5p4-5h7p5--|
|-000-------------------000---------------------|
[ Tab from: http://www.guitartabs.cc/tabs/j/job_for_a_cowboy/suspended_by_the_throat_tab_ver_3.html ]
|----------------------------------------------------|
|----------------------------------------------------|
|----------------------------------------------------|
|------------------------------------------------7ph-|
|-----5h7p5--4h5p4--5h7p5--8h10p8--7h8p7--5h7p5------|
|-000------------------------------------------------|

verse5 x4
|--------------------------------------------------|
|--------------------------------------------------|
|--------------------------------------------------|
|--------------------------------------------------|
|-----5h8p5--4h7p4--1h4p1-----5h8p5--4h7p4--1h4p1--|
|-000---------------------000----------------------|

|-----------------------------------------|
|-----------------------------------------|
|-----------------------------------------|
|-----------------------------------------|
|---------------------------7ph-----------|
|-----5h8p5-4h7p4-1h4p1-------------4h5p4-|
|-000-------------------000-----000-------|

4th time only
|----------------------|
|----------------------|
|----------------------|
|------6ph-----------0-|
|--------------4h5p4-0-|
|--000-----000-------0-|


verse6 x2
|---------------------------------------------|
|---------------------------------------------|
|---------------------------------------------|
|---------------------------------------------|
|--------------5p0--8p0--7p0--10p0--8p0--7p0--|
|-000000000000--------------------------------|


|---------------------------------------------|
|---------------------------------------------|
|---------------------------------------------|
|--------------------------------------7ph----|
|--------------------------------5-7-8--------|
|-0000000000000000-5-7-8-8-10-11--------------|

|----------------------------------------------------------------------------|
|----------------------------------------------------------------------------|
|----------------------------------------------------------------------------|
|----------------------------------------------------------------7ph------7--|p
|--------------5p0--8p0--7p0--10p0--8p0--7p0---------------4h5p4-----4h5p4---|
|-000000000000--------------------------------000000000000-------------------|


outro
|----------------------------------------------------------------------|
|----------------------------------------------------------------------|
|----------------------------------------------------------------------|
|----------------------------------------------------------------------|
|-000000-7p5h7h8-000000-8p7h8h10-000000-7p5h7h8-----10101010------8888-|
|-000000---------000000----------000000---------8888---------7777------|


|-----------------------------------------------|
|-----------------------------------------------|
|-----------------------------------------------|
|--0-0-000-0-0-000-0-0-000----------------------|
|--0-0-000-0-0-000-0-0-000-------101010-----888-|
|--0-0-000-0-0-000-0-0-000---888--------777-----|

|----------------------------------------------------------|
|----------------------------------------------------------|
|----------------------------------------------------------|
|----------------------------------------------------------|
|-----101010-----888-----101010----888-----101010----888-0-|
|-888--------777-----888--------777----888--------777----0-|

Second outro x6
|-----------------------------------------------|
|-----------------------------------------------|
|-----------------------------------------------|
|-----------------------------------------------|
|--0-8-7-8---0-10-8-10--0--8-7-8/10-8-7---------|
|--0---------0----------0-----------------------|
Guitar 2
|-----------------------------------------------|
|-----------------------------------------------|
|-----------------------------------------------|
|-----------------------------------------------|
|--0-12-10-12-0-13-12-13-0--12-10-12/13-12-10---|
|--0----------0----------0----------------------|


Both guitars
|--------|
|--------|
|--------|
|--0-----|
|--0-----|Fade Out.
|--0-----|
Comments