Joaquin Rodrigo - En Los Trigales Chords & Tabs

 

En Los Trigales Chords & Tabs

Joaquin Rodrigo Chords & Tabs

Version: 1 Type: Tab 0 ratings
1 star 2 stars 3 stars 4 stars 5 stars
comments

En Los Trigales Tab

E-|--------------------------------------|--5-5-5-5-5--5--5---5--5--6----8p6p5--|
B-|--------------------------------------|----------------4---4--4--3-----------|
G-|----------------0---0-----------------|--7-7-7-7-7--7------------------------|
D-|--0-0-0-0-1--0---------3--1---3p1p0---|--4-4-4-4-4--4--5---5--5--4-----------|
A-|--------------------------------------|--------------------------------------|
E-|--------------------------------------|--------------------------------------|

E-|--------------------------------------|-----------------------------------------|
B-|----------------8---8-----------------|-----------------------------------------|
G-|--7-7-7-7-8--7---------10--8--10p8p7--|-----------------------------------------|
D-|--------------------------------------|--------------3-5-7-5-3---3--------------|
A-|--------------------------------------|--------3-5-6-----------6---6-5-3--------|
E-|--------------------------------------|--3-5-6---------------------------6-5-3--|

E-|---------------------------------------------|----------------3-----3--1------------|
B-|---------------------------------------------|--3-3-3-3-4--3--------1-----4---6p4p3-|
G-|--2-2-2-3-2------0------2-2-2-3-2------0-----|------2---0--2--3--------2--0-2-----3-|
D-|--0---3------3-1-3-1----0---3------3-1-3-1---|--0-----------------------------------|
A-|---------------------------------------------|-------------------0------------------|
E-|---------------------3---------------------3-|--------------------------------------|

E-|---------------------------------|---------------------------------------------|
B-|----3-3-3-3-4--3--1--3--1--------|---------------------------------------------|
G-|--------2---------2--------3--5--|----------------------2--2h5-3--2--3-2-------|
D-|----0----------0--------4--5--4--|--5-5-5-4-2-2-4-4-5-5------------------5--4--|
A-|------------0--------1--------5--|---------------------------------------------|
E-|--3------------------------------|---------------------------------------------|

E-|-------------------3-----3--1-------------|---------------1-1-1-1-1-----1----1-1-1-1-1-----1--|
B-|-----3-3-3-3-4--3--------1-----4---6p4p3--|--------------------------3------------------3-----|
G-|---------2---0--2--3--------2--0-2-----3--|---------------0---2---3--2--0----0---2---3--2--0--|
D-|-----0------------------------------------|--3-3-3--3-----------------------------------------|
A-|----------------------0-------------------|---------------------------------------------------|
E-|--3---------------------------------------|------------1------------------1-------------------|

E-|--------------------------------|--------------------------------|
B-|----------------1--3------------|----------------1--3------------|
G-|-------0--2--3--------3----2-0--|-------0--2--3--------3----2-0--|
D-|-----4-------------------3--1---|-----4-------------------3--1---|
A-|--0-----------------------------|--0-----------------------------|
E-|----------------------3---------|----------------------3---------|

E-|--------------------------------------|--5------5---5---5----5h6p5h6p5----5h6p5h6p5----5--|
B-|--4-------------------3---------------|--4------3---3---3--------------8------------8-----|
G-|--0-------------------0---------------|--2------2---2---2----7------------7------------7--|
D-|--4------------0----------------------|--0----1-0---0---0----5------------5------------5--|
A-|------0--1--3-----1------0------------|-----3----------------5------------5------------5--|
E-|----------------------------3---------|---------------------------------------------------|

E-|-------------------------|--5h6p5h6p5-----5h6p5h6p5-----3h4p3h4p3-----------------------|
B-|--------1--3-------------|-------------8-------------8-------------6--------------------|
G-|--2--3---------3---2--0--|--7-------------7-------------5----------6--------------------|
D-|-------------------------|--5-------------5-------------3-------------------1-----------|
A-|-------------------------|--5-------------5-------------3-------------1h3-4---4---3--1--|
E-|-------------------------|--------------------------------------------------------------|

E-|--3h4p3h4p3-----3h4p3h4p3-----3--|--------------------------------------------------|
B-|-------------6-------------6-----|-----1--2--4--2--2--1--1--------------------------|
G-|--5-------------5-------------5--|--3-----------------------3--3--1--1--0--0--------|
D-|--3-------------3-------------5--|--------------------------------------------3--3--|
A-|--3-------------3-------------5--|--------------------------------------------------|
E-|---------------------------------|--------------------------------------------------|

E-|--------------------------------------------------|---------------------------|
B-|-----------------5-----5-----------------5-----5--|---------------------------|
G-|--5-----5-----------------5-----5-----------------|--5-----0--1--3--1~---0----|
D-|--6-----6-----5-----5-----6-----6-----5-----5-----|--6--3------------------3--|
A-|--6-----6-----5-----5-----6-----6-----5-----5-----|--6------------------------|
E-|-----4-----4--3-----3--------4-----4--3-----3-----|---------------------------|

E-|--------------------------------------|-------------------------------------------|
B-|-----------------5-----5--------------|--5----------------------------------------|
G-|--3-----3-----------------3-----3-----|--4----2--------------------1-----1--------|
D-|--4-----4-----5-----5-----4-----4-----|--5----3--------------1--3-----4-----4--3--|
A-|--4-----4-----5-----5-----4-----4-----|-------3--0--1--3--4-----------------------|
E-|-----2-----2--3-----3--------2-----2--|--3----------------------------------------|

E-|--------------------------------------|-----------------------------------------------|
B-|--------------------------------------|-----------------------------------------------|
G-|--------------------------------------|-----------------------------------------------|
D-|-------------------3--6--4--6--4--6---|--4--6--4--6--4--6--6--4--4--6--6--4--4--6--6--|
A-|----------3--4--6---------------------|-----------------------------------------------|
E-|--3--5--6-----------------------------|-----------------------------------------------|

E-|-----------------------------------------|-----------------------------|
B-|-----------------------------------------|-----------------------------|
G-|--------------------------3--------------|--------------3--------------|
D-|--4--4--6--6--4--4--4--4--4-------4------|--4--4--4--4--4-------4------|
A-|------------------------------5----------|------------------5----------|
E-|--------------------------------------3--|--------------------------3--|

E-|---------------------------------------|------------------------------------------------|
B-|---------------------------------------|------------------------------------------------|
G-|--------------3------------------------|-----2-2-2-3-2------0------2-2-2-3-2-----0------|
D-|--4--4--4--4--4-------4--------4-------|-----0--3-------3-1-3-1----0---3-----3-1-3-1----|
A-|------------------5-------5---------5--|------------------------------------------------|
E-|---------------------------------------|--3---------------------3--------------------3--|

E-|--5-5-5-6-5-5-6-6-3-3-5-5-6-6-3-3--|----------------------------------------------|
B-|-----------------------------------|----------------------------------------------|
G-|--5---3---2---3---0---2---3---0----|--2-2-3-3-0-0-2-2-3-3-0-0---------------------|
D-|-----------------------------------|----------------------------------------------|
A-|-----------------------------------|--0---1-------0---1-------0---1-------0~~~~---|
E-|-----------------------------------|----------3-----------3-----------3-----------|
[ Tab from: http://www.guitartabs.cc/tabs/j/joaquin_rodrigo/en_los_trigales_tab.html ]
E-|-------------------------------6---6--|-6(18)------6---6---------------------------------|
B-|------------------------------6----6--|-----------8----8---------------------------------|
G-|-----------------------------5-----5--|----------7-----7---------------------------------|
D-|------0---3----1---3---0----5------5--|--------------------------------------------------|
A-|--1-----------------------------------|---------8------8---------------------------------|
E-|--------------------------------------|-------------------6-6-6-6-6--6--6---6---6--6---6-|

E-|----------------------------------------|----------------------------6---6----6(18)--|
B-|----------------------------------------|---------------------------6----6-----------|
G-|--------------------3---5---3--2--0-----|--3---5----3---2---0------5-----5-----------|
D-|------0---3----0---------------------3--|-------------------------5------5-----------|
A-|--1-------------------------------------|--------------------------------------------|
E-|----------------------------------------|--------------------------------------------|

E-|-----6---6--------------------------------|-------10---13----13---11---13---10---|
B-|----8----8--------------------------------|--11----------------------------------|
G-|---7-----7--------------------------------|--------------------------------------|
D-|------------------------------------------|--8-----------------------------------|
A-|--8------8--------------------------------|--------------------------------------|
E-|------------6-6-6-6-6--6--6---6---6--6--6-|------------13------------------------|

E-|---------------------------------------------|----------------3-----3--1------------|
B-|---------------------------------------------|--3-3-3-3-4--3--------1-----4---6p4p3-|
G-|--2-2-2-3-2------0------2-2-2-3-2------0-----|------2---0--2--3--------2--0-2-----3-|
D-|--0---3------3-1-3-1----0---3------3-1-3-1---|--0-----------------------------------|
A-|---------------------------------------------|-------------------0------------------|
E-|---------------------3---------------------3-|--------------------------------------|

E-|---------------------------------|---------------------------------------------|
B-|----3-3-3-3-4--3--1--3--1--------|---------------------------------------------|
G-|--------2---------2--------3--5--|----------------------2--2h5-3--2--3-2-------|
D-|----0----------0--------4--5--4--|--5-5-5-4-2-2-4-4-5-5------------------5--4--|
A-|------------0--------1--------5--|---------------------------------------------|
E-|--3------------------------------|---------------------------------------------|

E-|-------------------3-----3--1-------------|---------------1-1-1-1-1-----1----1-1-1-1-1-----1--|
B-|-----3-3-3-3-4--3--------1-----4---6p4p3--|--------------------------3------------------3-----|
G-|---------2---0--2--3--------2--0-2-----3--|---------------0---2---3--2--0----0---2---3--2--0--|
D-|-----0------------------------------------|--3-3-3--3-----------------------------------------|
A-|----------------------0-------------------|---------------------------------------------------|
E-|--3---------------------------------------|------------1------------------1-------------------|

E-|--------------------------------|--------------------------------|
B-|----------------1--3------------|----------------1--3------------|
G-|-------0--2--3--------3----2-0--|-------0--2--3--------3----2-0--|
D-|-----4-------------------3--1---|-----4-------------------3--1---|
A-|--0-----------------------------|--0-----------------------------|
E-|----------------------3---------|----------------------3---------|

E-|--------------------------------------|--5------5---5---5----5h65h6p5-----5h6p5h6p5----5--|
B-|--4-------------------3---------------|--4------3---3---3--------------8------------8-----|
G-|--0-------------------0---------------|--2------2---2---2----7------------7------------7--|
D-|--4------------0----------------------|--0----1-0---0---0----5------------5------------5--|
A-|------0--1--3-----1------0------------|-----3----------------5------------5------------5--|
E-|----------------------------3---------|---------------------------------------------------|

E-|-------------------------|--5h6p5h6p5-----5h6p5h6p5-----3h4p3h4p3-----------------------|
B-|--------1--3-------------|-------------8-------------8-------------6--------------------|
G-|--2--3---------3---2--0--|--7-------------7-------------5----------6--------------------|
D-|-------------------------|--5-------------5-------------3-------------------1-----------|
A-|-------------------------|--5-------------5-------------3-------------1h3-4---4---3--1--|
E-|-------------------------|--------------------------------------------------------------|

E-|--3h4p3h4p3-----3h4p3h4p3-----3--|--------------------------------------------------|
B-|-------------6-------------6-----|-----1--2--4--2--2--1--1--------------------------|
G-|--5-------------5-------------5--|--3-----------------------3--3--1--1--0--0--------|
D-|--3-------------3-------------5--|--------------------------------------------3--3--|
A-|--3-------------3-------------5--|--------------------------------------------------|
E-|---------------------------------|--------------------------------------------------|

E-|--------------------------------------------------|---------------------------|
B-|-----------------5-----5-----------------5-----5--|---------------------------|
G-|--5-----5-----------------5-----5-----------------|--5-----0--1--3--1~--0-----|
D-|--6-----6-----5-----5-----6-----6-----5-----5-----|--6--3------------------3--|
A-|--6-----6-----5-----5-----6-----6-----5-----5-----|--6------------------------|
E-|-----4-----4--3-----3--------4-----4--3-----3-----|---------------------------|

E-|--------------------------------------|-------------------------------------------|
B-|-----------------5-----5--------------|--5----------------------------------------|
G-|--3-----3-----------------3-----3-----|--4----2--------------------1-----1--------|
D-|--4-----4-----5-----5-----4-----4-----|--5----3--------------1--3-----4-----4--3--|
A-|--4-----4-----5-----5-----4-----4-----|-------3--0--1--3--4-----------------------|
E-|-----2-----2--3-----3--------2-----2--|--3----------------------------------------|

E-|--------------------------------------|-----------------------------------------------|
B-|--------------------------------------|-----------------------------------------------|
G-|--------------------------------------|-----------------------------------------------|
D-|-------------------3--6--4--6--4--6---|--4--6--4--6--4--6--6--4--4--6--6--4--4--6--6--|
A-|----------3--4--6---------------------|-----------------------------------------------|
E-|--3--5--6-----------------------------|-----------------------------------------------|

E-|-----------------------------------------|-----------------------------|
B-|-----------------------------------------|-----------------------------|
G-|--------------------------3--------------|--------------3--------------|
D-|--4--4--6--6--4--4--4--4--4-------4------|--4--4--4--4--4-------4------|
A-|------------------------------5----------|------------------5----------|
E-|--------------------------------------3--|--------------------------3--|

E-|---------------------------------------|------------------------------------------------|
B-|---------------------------------------|------------------------------------------------|
G-|--------------3------------------------|-----2-2-2-3-2------0------2-2-2-3-2-----0------|
D-|--4--4--4--4--4-------4--------4-------|-----0--3-------3-1-3-1----0---3-----3-1-3-1----|
A-|------------------5-------5---------5--|------------------------------------------------|
E-|---------------------------------------|--3---------------------3--------------------3--|

E-|--5-5-5-6-5-5-6-6-3-3-5-5-6-6-3-3--|-----------------------------------------|
B-|-----------------------------------|-----------------------------------------|
G-|--5---3---2---3---0---2---3---0----|--2-2-3-3-0-0-2-2-3-3-0-0----------------|
D-|-----------------------------------|-----------------------------------------|
A-|-----------------------------------|--0---1-------0---1-------0---1-------0--|
E-|-----------------------------------|----------3-----------3-----------3------|

E-|--------------5---10-----10--------15-|
B-|-----------4------------7---------15--|
G-|-----0--3--------------7---------15---|
D-|----------------------0---------17----|
A-|--5-----------------------------------|
E-|--------------------------------------|


Transcribed by: B.P.
Comments