Joan Osborne - One Of Us Chords & Tabs

 

One Of Us Chords & Tabs

Joan Osborne Chords & Tabs

Version: 2 Type: Tab 0 ratings
1 star 2 stars 3 stars 4 stars 5 stars
comments

One Of Us Tab

   
-------------------------------------------------------------------------------
			     ONE OF US - Joan Osborne
-------------------------------------------------------------------------------
Tabbed by:Baarsboy(Evan Baars)
Email:evan_baars@hotmail.com

Tuning:Standard E

Hey there!!! It took me awhile to do this, but it's finished now!
Well, most of it anyway.


e|0--2---3--------------------------------------------------------------0--2-|
B|0--0-----------0------0---1---3---------(3)---------------------------3--3-|
G|---------------0------0---0---0---------(0)------------0---0---2---2-------|
D|-----------2------0---------------0---------------0--------0-------0-------|
A|----------------------3-----------------------2----------------------------|
E|-------0---------------------------------3---------------------------------|
[ Tab from: http://www.guitartabs.cc/tabs/j/joan_osborne/one_of_us_tab_ver_2.html ]
e|3-----------------------------------------------------------0--2---3-------|
B|--------0-------0---1---3-------------------0---3-----------3--3---------0-|
G|--------0-------0---0---0-------------------0---0---2---2----------------0-|
D|------------0---------------0-------0---0---0---0-------0-------------2----|
A|----2-----------3-------------------2---2----------------------------------|
E|0-------------------------------3----------------------------------0-------|

e|---------------------------------------------0---2-------------------------|
B|----0--1--3----------------------------------3---3-------------------------|
G|----0--0--0-------------------0---0---2---2--------------------------------|
D|0-------------0-----------0-------0-------0--------------------------------|
A|----3-----------------2----------------------------------------------------|
E|------------------3--------------------------------------------------------|


| /  slide up
| \  slide down
| h  hammer-on
| p  pull-off
| ~  vibrato
| +  harmonic
| x  Mute note
===============================================================================
Comments