Joan Armatrading - The Waekness In Me Chords & Tabs

 

The Waekness In Me Chords & Tabs

Joan Armatrading Chords & Tabs

Version: 1 Type: Bass Tab 0 ratings
1 star 2 stars 3 stars 4 stars 5 stars
comments

The Waekness In Me Bass Tab

The Weakness in me - Joan Armatrading

Standard tuning

Intro

G---------------------------------------------|
D--------------------2-22---------------------|
A-------------5-55--------3-33----------------|
E------3-33----------------------5-55---------|

Verse
[ Tab from: http://www.guitartabs.cc/tabs/j/joan_armatrading/the_waekness_in_me_btab.html ]
G----------------------------------------------------------------------------|
D--------------------2-22----------------------------------------------------|
A-------------5-55--------3-33-------------------5-55-3-33-------------------|
E------3-33----------------------3-33-----3-33---------------3-33------------|  X2

Chorus

G--------------------------------------------------------------------------------------------|
D-----2-22-------------------2-22------------------------------------------------------------|
A------------3-33-------------------3-33-------------5-3-5----5-3-5---5-3-5---5-3-5----------|
E-------------------3-33-------------------3-33-------------3----------3--------3---------3--|
Comments