Jo Day - The Truth Chords & Tabs

 

The Truth Chords & Tabs

Jo Day Chords & Tabs

Version: 1 Type: Bass Tab 0 ratings
1 star 2 stars 3 stars 4 stars 5 stars
comments

The Truth Bass Tab

Band Website: http://www.joday.com for samples etc...

Song: The Truth
Band: Jo Day
Album: The Truth
Tabbed By: F.B.I. Agent Gareth a.k.a SeepZ (hypercobra69@hotmail.com)
Tuning: Standard 5 string (BEADG)

Now I'm not TOO sure this is actually played on a 5 string, but if not, you can use the 
at the bottom of the page which is on a standard 4 string. I'm pretty sure this is 100% 
If you can't get the timing, just listen to the song a lot. If you can get the timing,
listen to the song a lot anyways!!!

Bass Comes in After 9 Seconds.
Intro: X1

B-5~\1/3/5~/13/15\---------------------------------------------------|
E--------------------------------------------------------------------|
A--------------------------------------------------------------------|
D--------------------------------------------------------------------|
G--------------------------------------------------------------------|

Verse: X2

B-5~\1/3/5~/13/15\---------------------------------------------------|
E--------------------------------------------------------------------|
A--------------------------------------------------------------------|
D--------------------------------------------------------------------|
G--------------------------------------------------------------------|

Fill: X1

B-5~\1/3/------------------------------------------------------------|
E--------------------------------------------------------------------|
A--------------------------------------------------------------------|
D--------------------------------------------------------------------|
G--------------------------------------------------------------------|

Verse: X3

B-5~\1/3/5~/13/15\---------------------------------------------------|
E--------------------------------------------------------------------|
A--------------------------------------------------------------------|
D--------------------------------------------------------------------|
G--------------------------------------------------------------------|

Fill: X1

B-5~\1/3/------------------------------------------------------------|
E--------------------------------------------------------------------|
A--------------------------------------------------------------------|
D--------------------------------------------------------------------|
G--------------------------------------------------------------------|

Chorus: X4

B-3h5-3h5-3h5-3h5\0h1-0h1-0h1-0/888888-------------------------------|
E--------------------------------------------------------------------|
A--------------------------------------------------------------------|
D--------------------------------------------------------------------|
G--------------------------------------------------------------------|

Verse: X2

B-5~\1/3/5~/13/15\---------------------------------------------------|
E--------------------------------------------------------------------|
A--------------------------------------------------------------------|
D--------------------------------------------------------------------|
G--------------------------------------------------------------------|

Chorus: X4

B-3h5-3h5-3h5-3h5\0h1-0h1-0h1-0/888888-------------------------------|
E--------------------------------------------------------------------|
A--------------------------------------------------------------------|
D--------------------------------------------------------------------|
G--------------------------------------------------------------------|

Bass Riff under the guitar solo is the same as the chorus: X4

B-3h5-3h5-3h5-3h5\0h1-0h1-0h1-0/888888-------------------------------|
E--------------------------------------------------------------------|
A--------------------------------------------------------------------|
D--------------------------------------------------------------------|
G--------------------------------------------------------------------|

Chorus: X4

B-3h5-3h5-3h5-3h5\0h1-0h1-0h1-0/888888-------------------------------|
E--------------------------------------------------------------------|
A--------------------------------------------------------------------|
D--------------------------------------------------------------------|
G--------------------------------------------------------------------|

Verse: X4
[ Tab from: http://www.guitartabs.cc/tabs/j/jo_day/the_truth_btab.html ]
B-5~\1/3/5~/13/15----------------------------------------------------|
E--------------------------------------------------------------------|
A--------------------------------------------------------------------|
D--------------------------------------------------------------------|
G--------------------------------------------------------------------|

End: X1

B-5~\1/3/5-----------------------------------------------------------|
E--------------------------------------------------------------------|
A--------------------------------------------------------------------|
D--------------------------------------------------------------------|
G--------------------------------------------------------------------|

Now for the Standard 4 string-tuned version

Bass Comes in After 9 Seconds.
Intro: X1

E--------------------------------------------------------------------|
A-7~\3/5/7~/15/17\---------------------------------------------------|
D--------------------------------------------------------------------|
G--------------------------------------------------------------------|

Verse: X2

E--------------------------------------------------------------------|
A-7~\3/5/7~/15/17\---------------------------------------------------|
D--------------------------------------------------------------------|
G--------------------------------------------------------------------|

Fill: X1

E--------------------------------------------------------------------|
A-7~\3/5-------------------------------------------------------------|
D--------------------------------------------------------------------|
G--------------------------------------------------------------------|

Verse: X3

E--------------------------------------------------------------------|
A-7~\3/5/7~/15/17\---------------------------------------------------|
D--------------------------------------------------------------------|
G--------------------------------------------------------------------|


Fill: X1

E--------------------------------------------------------------------|
A-7~\3/5-------------------------------------------------------------|
D--------------------------------------------------------------------|
G--------------------------------------------------------------------|

Chorus: X4

E--------------------------------------------------------------------|
A-5h7-5h7-5h7-5h7\2h3-2h3-2h3-2/10-10-10-10-10-10--------------------|
D--------------------------------------------------------------------|
G--------------------------------------------------------------------|

Verse: X2

E--------------------------------------------------------------------|
A-7~\3/5/7~/15/17\---------------------------------------------------|
D--------------------------------------------------------------------|
G--------------------------------------------------------------------|

Chorus: X4

E--------------------------------------------------------------------|
A-5h7-5h7-5h7-5h7\2h3-2h3-2h3-2/10-10-10-10-10-10--------------------|
D--------------------------------------------------------------------|
G--------------------------------------------------------------------|

Bass Riff under the guitar solo is the same as the chorus: X4

E--------------------------------------------------------------------|
A-5h7-5h7-5h7-5h7\2h3-2h3-2h3-2/10-10-10-10-10-10--------------------|
D--------------------------------------------------------------------|
G--------------------------------------------------------------------|

Chorus: X4

E--------------------------------------------------------------------|
A-5h7-5h7-5h7-5h7\2h3-2h3-2h3-2/10-10-10-10-10-10--------------------|
D--------------------------------------------------------------------|
G--------------------------------------------------------------------|

Verse: X3

E--------------------------------------------------------------------|
A-7~\3/5/7~/15/17\---------------------------------------------------|
D--------------------------------------------------------------------|
G--------------------------------------------------------------------|

End: X1

E--------------------------------------------------------------------|
A-7~\3/5/7-----------------------------------------------------------|
D--------------------------------------------------------------------|
G--------------------------------------------------------------------|

That's It!! Pretty easy, again, just timing. Enjoy the tabs. Get all your friends to 
about Jo Day!!! Even your enemies!!!!!! KEEP THE FAITH!!!!!1
Comments