Jo Day - Reel God Chords & Tabs

 

Reel God Chords & Tabs

Jo Day Chords & Tabs

Version: 1 Type: Bass Tab 0 ratings
1 star 2 stars 3 stars 4 stars 5 stars
comments

Reel God Bass Tab

Band's Web Page: http://www.joday.com. to get samples of the songs: http://www.joday.com/discography.html

Song: Reel God
Album: No Warning
Band: Jo Day
Tabbed By: Jo Day F.B.I. Agent Gareth a.k.a SeepZ (hypercobra69@hotmail.com)
Instrument: Bass Guitar
Tuning: Dropped D (DADG)
This is my personal favourite of all Jo Day songs, probably cos I sang it
at Nile Crocodile on the 4th of June 2004 with the band. Best night of my life.
Anyway, the song's relatively simple, just timing can be tricky. Enjoy.

Intro Riff:
G----------------------------------------------------------------------|
D----------------------------------------------------------------------|
A----------------------------------------------------------------------|
D-0-0-230m-0-23--00-23-0-0-230m-0-88877--------------------------------|

Verse Riff:
G-----------------------------------------------------------------------|
D-----------------------------------------------------------------------|
A-----------------------------------------------------------------------|
D-0~~~-8~~-7~-----------------------------------------------------------|

Pre Chorus Riff:
G-----------------------------------------------------------------------|
D-----------------------------------------------------------------------|
A-----------------------------------------------------------------------|
D-0-0-230m----0-0-230m----0-0-230m----0-0-230m--------------------------|
[ Tab from: http://www.guitartabs.cc/tabs/j/jo_day/reel_god_btab.html ]
Chorus Riff:
         X3                    X1
G---------------------|--------------------|---------------------------|
D---------------------|--------------------|---------------------------|
A---------------------|--------------------|---------------------------|
D-0000-3333-5555-8888-|-0000-3333-5555-8-8-|---------------------------|

Fill:
G-----------------------------------------------------------------------|
D-----------------------------------------------------------------------|
A-----------------------------------------------------------------------|
D-0~~~~~/12-------------------------------------------------------------|

Bridge Riff 1:
G-----------------------------------------------------------------------|
D-----------------------------------------------------------------------|
A-----------------------------------------------------------------------|
D-035-0-35-0-35-0-3635-0-35-0-35-0-35-0--------------------------------|

Bridge Riff 2:
G----------------------------------------------------------------------|
D----------------------------------------------------------------------|
A----------------------------------------------------------------------|
D-0-0-33-33-55-88-88\0-0-33-33-55-88-88--------------------------------|

Ending:
G----------------------------------------------------------------------|
D----------------------------------------------------------------------|
A----------------------------------------------------------------------|
D-0-0-230m-------------------------------------------------------------|


Intro Riff X4
Verse Riff X2
Intro Riff X2
Verse Riff X2
Pre Chorus Riff X1
Chorus Riff X1
Intro Riff X2
Verse Riff X2
Pre Chorus Riff X1
Chorus Riff X1
Fill X1
Bridge Riff 1 X1
Bridge Riff 2 X1
Bridge Riff 1 X1
Pre Chorus Riff X1 (My fave part of da song ;-)
Chorus Riff X2
Ending X1

Looks Technical, but its not really. The only hardish part is the bridge, and I'm nott 
that its right.
Comments