Jo Day - Prey Chords & Tabs

 

Prey Chords & Tabs

Jo Day Chords & Tabs

Version: 1 Type: Bass Tab 0 ratings
1 star 2 stars 3 stars 4 stars 5 stars
comments

Prey Bass Tab

Band Website: http://www.joday.com for samples etc...

Song: Prey
Album: The Truth
Band: Jo Day
Tabbed By: F.B.I Agent Gareth a.k.a SeepZ (hypercobra69@hotmail.com)
Instrument: Bass Guitar
Tuning: Dropped C (CADG)

I'm pretty sure about this. Its quite an easy song, with a steady rhythm and all. So 
If you think I'm wrong, EMAIL me.

Intro Riff:
G----------------------------------------------------------------------|
D-5-3-0-5-3-55-3-0-----------------------------------------------------|
A----------------------------------------------------------------------|
C----------------------------------------------------------------------|

Verse Riff:
G----------------------------------------------------------------------|
D----------------------------------------------------------------------|
A----------------------------------------------------------------------|
C-7-5-0-7-5-77-5-0-----------------------------------------------------|
[ Tab from: http://www.guitartabs.cc/tabs/j/jo_day/prey_btab.html ]
Pre Chorus Riff:
G----------------------------------------------------------------------|
D----------------------------------------------------------------------|
A----------------------------11111111-33333333-------------------------|
C-22222222-55555555-77777777-------------------------------------------|

Chorus Riff:
       X3            X1
G--------------|------------|------------------------------------------|
D--------------|------------|------------------------------------------|
A--------------|------------|------------------------------------------|
C-22X-5-4h5-0~-|-22x-55-0-0-|------------------------------------------|

Little Fill Thing:
G----------------------------------------------------------------------|
D----------------------------------------------------------------------|
A----------------------------------------------------------------------|
C-0-0------------------------------------------------------------------|

Intro Riff X12
Verse Riff X12
Pre Chorus Riff X2
Chorus Riff X2
Intro Riff X10
Pre Chorus Riff X2
Chorus Riff X2
Rest for about 8 seconds
Little Fill Thing X1
Pre Chorus Riff X2
Chorus Riff X4

That's It! Like I said, quite easy, and really easy to get the hang of. Look out for 
tabs by SeepZ. Coming Soon.

Keep The FAITH!!!!
Comments