Jo Day - No Warning Chords & Tabs

 

No Warning Chords & Tabs

Jo Day Chords & Tabs

Version: 1 Type: Bass Tab 0 ratings
1 star 2 stars 3 stars 4 stars 5 stars
comments

No Warning Bass Tab

Band Website: http://www.joday.com for samples etc...

Song: No Warning
Album: No Warning
Band: Jo Day
Tabbed By: F.B.I. Agent Gareth a.k.a SeepZ (hypercobra69@hotmail.com)
Instrument: Bass Guitar
Tuning: Dropped D (DADG)
This is probably the best song ever. I mean ever. The Pre Chorus and Chorus might be off 
bit, but sounds damn close when I play it. Enjoy.

Verse Riff:
G----------------------------------------------------------------------|
D----------------------------------------------------------------------|
A----------------------------------------------------------------------|
D-0030X-030X-030X-6653-------------------------------------------------|

Pre Chorus Riff 1:
G----------------------------------------------------------------------|
D----------------------------------------------------------------------|
A--------3332220--------3332210----------------------------------------|
D-0/77\3---------0/77\3------------------------------------------------|
[ Tab from: http://www.guitartabs.cc/tabs/j/jo_day/no_warning_btab.html ]
Pre Chorus Riff 2:
G----------------------------------------------------------------------|
D----------------------------------------------------------------------|
A----------------------------------------------------------------------|
D-0-3-00/8888-8888-635-------------------------------------------------|

Chorus Riff:
G----------------------------------------------------------------------|
D----------------------------------------------------------------------|
A-----------------1111-------------------------------------------------|
D-0-3-0-3-0-3-0-3------------------------------------------------------|

Fill:
G----------------------------------------------------------------------|
D----------------------------------------------------------------------|
A----------------------------------------------------------------------|
D-0/77\3---------------------------------------------------------------|

Verse Riff X16
Pre Chorus Riff 1 X2
Pre Chorus riff 2 X1
Chorus Riff X4
Verse Riff X6
Pre Chorus Riff 1 X2
Pre Chorus Riff 2 X1
Chorus Riff X4
Fill X4
Chorus Riff X4
Rest For about 12 seconds
Pre Chorus Riff 1 X2
Pre Chorus Riff 2 X1
Chorus Riff X8
Fill X4

That's It. KEEP THE FAITH!!!! LISTEN TO MORE SA MUSIC!!!!!
Comments