Jj72 - Undercover Angel Chords & Tabs

 

Undercover Angel Chords & Tabs

Jj72 Chords & Tabs

Version: 4 Type: Tab 0 ratings
1 star 2 stars 3 stars 4 stars 5 stars
comments

Undercover Angel Tab

   
Undercover Angel
 
Tabbed by rjan Olsen at orjano59@hotmail.com
Thank you, the person who made the last tab
This song is in Standard Tuning
 
chords in the song:
G     320033
Gmaj7 3x0032 
G/F#  200233
Am    x02210
A5    x02200
Em    022000
C     x32010
Em*   022300
D     x00232
C5    x3555x
D5    x5777x
G5    3554xx
F#m5  2442xx
Em5   0220xx  

Intro riff: (clean, I play it with reverb) 

|----7-------7-----------7-------7-------------|
|--8---8--7--7--7-8--8--8---7---7-8------------|
|----------------------------------------------|
|----------------------------------------------|
|----------------------------------------------|
|----------------------------------------------|

|----------8---------8-----------------8-----8-|
|-10----10---8---8---8-10--10--10--8--8--8-7---|
|----------------------------------------------|
|----------------------------------------------|
|----------------------------------------------|
|----------------------------------------------|

(repeat)

1.verse 

Verse Riff guitar.2 (clean guitar with reverb)
|--------------------------------------------------------|
|-----12----12---------12----12-------5---5------5---5---|
|-12-----12----11---12----12----11--5---5---4--5---5---4-|
|--------------------------------------------------------|x2
|--------------------------------------------------------|
|--------------------------------------------------------|

[ Tab from: http://www.guitartabs.cc/tabs/j/jj72/undercover_angel_tab_ver_4.html ]
Guitar. 1 strum this chords
 
G     Gmaj7  G    Gmaj7
i saw you    in a river 
Am  A5       Am  A5
of stardust and golden spray 
G     Gmaj7   G    Gmaj7
was sent down by the good sun 
Am     A5       Am     A5
it covered you and made you shine 

(here the second guitar play the same chords in a singel sweep, 
with Wah wah or chorus over a clean guitar)

C      D                     G   G/F#   Em
an angel that's what you are 
C                      D                    G  G/F#  Em* (with distortion)
but this shining flower knows it can sting 

""With distortion""

play this part like:
   G    Gmaj7  G   Gmaj7   Am    A5 and so on 
|--3-----2-----3-----2-----0-----0--------------- 
|--3-----3-----3-----3-----1-----0--------------- 
|--0-----0-----0-----0-----2-----2--------------- 
|--0-----0-----0-----0-----2-----2--------------- 
|--2-----x-----2-----x-----0-----0--------------- 
|--3-----3-----3-----3-----0-----0--------------- 
   D     u     D     u     D     u 

G      Gmaj7   G   Gmaj7      Am    A5
i know my mind is taken over
   Am     A5       G    Gmaj7   G    Gmaj7
by this satellite, in the land of cloud
Am    A5   Am    A5
where you fell from 

C5          D5                G5    F#m5   Em5
an angel that's what you are
C5          D5                G5    F#m5   Em5
but this shining flower knows it can sting


"""The rest of the song is very similar:"""

honesty it could destroy me 
an angel is worth the risk 
of being sentenced by a pilot
to my dreamland cross


Please give me feedback on my tab, at orjano59@hotmail.com
Comments