Jj72 - Undecover Angel Chords & Tabs

 

Undecover Angel Chords & Tabs

Jj72 Chords & Tabs

Version: 1 Type: Tab 0 ratings
1 star 2 stars 3 stars 4 stars 5 stars
comments

Undecover Angel Tab

   
G    (320033)
G/F# (200033)
Am   (x02210)
Em   (022000)
C    (x32010)
Em*  (022300)
D    (x00232)
F#m  (244222)  

Intro riff:

E----7-------7-----------7-------7-------------
B--8---8--7--7--7-8--8--8---7---7-8-------------


E-----------8---------8-----------------8-------8- 
B--10----10---8---8---8-10--10--10--8--8--8-7-----




(repeat)

[ Tab from: http://www.guitartabs.cc/tabs/j/jj72/undecover_angel_tab.html ]
G
i saw you in a river 
Am
of stardust and golden spray 
G
was sent down by the good sun 
Am
it covered you and made you shine 
C      D                     G   G/F#   Em
an angel that's what you are 
C                      D                    G  G/F#  Em*
but this shining flower knows it can sting 


G                            Am
i know my mind is taken over
                 G
by this satellite, in the land of cloud
Am 
where you fell from 
C           D                 G     F#m    Em
an angel that's what you are
but this shining flower knows it can sting

honesty it could destroy me 
an angel is worth the risk 
of being sentenced by a pilot
to my dreamland cross




Verse Riff
-|--------------------------------------------------------|-
-|-----12----12---------12----12-------5---5------5---5---|-
-|-12-----12----11---12----12----11--5---5---4--5---5---4-|-
-|--------------------------------------------------------|-x2
-|--------------------------------------------------------|-
-|--------------------------------------------------------|-


 

Comments