Jj72 - Snow Chords & Tabs

 

Snow Chords & Tabs

Jj72 Chords & Tabs

Version: 4 Type: Tab 0 ratings
1 star 2 stars 3 stars 4 stars 5 stars
comments

Snow Tab

#----------------------------------PLEASE NOTE--------------------------------#
#This file is the author's own work and represents their interpretation of the#
#song. You may only use this file for private study, scholarship, or research.#
#-----------------------------------------------------------------------------#
#-- File created with Instab - http://www.pconline.com/~smcarey/instab.html --#
#-----------------------------------------------------------------------------#

Author/Artist: Mark Greaney for JJ72
Title: Snow
Album: JJ72
Transcribed by: Joe Siddons
Email: joe.siddons@nme.com

-------------------3-1-----------------3-1-------------------3-1--------------|
---------3-1-----0-----------3-1-----0-------------3-1-----0------------------|
-------0-------2-----------0-------2-------------0-------2--------------------|
-----2-------3-----------2-------3-------------2-------3----------------------|
---3-------------------3---------------------3--------------------------------|
------------------------------------------------------------------------------|
 Intro and Verse, play 9 times
[ Tab from: http://www.guitartabs.cc/tabs/j/jj72/snow_tab_ver_4.html ]
-1-1-1-1-1-1-1-1--5-5-5-5-5-5-5-5---------------------------------------------|
-1-1-1-1-1-1-1-1--6-6-6-6-6-6-6-6---------------------------------------------|
-2-2-2-2-2-2-2-2--7-7p5-5h7-7p5-5---------------------------------------------|
-3-3-3-3-3-3-3-3--7-7p5-5h7-7p5-5---------------------------------------------|
-3-3-3-3-3-3-3-3--5-5-5-5-5-5-5-5---------------------------------------------|
-1-1-1-1-1-1-1-1--------------------------------------------------------------|
 Chorus (Why wont it snow, like they said it would..) play four times

---------------------------------------------------------------------1--------|
---------------------------------------------------------------------1--------|
-5-5/7-7/9-9-----------5-5/7-7/9-9-----------5-5/7-7/9-9/10-10-10----2--------|
-------------3-3/4/5-5-------------3-3/4/5-5-------------------------3--------|
-3-3/5-5/7-7-3-3/4/5-5-3-3/5-5/7-7-3-3/4/5-5-3-3/5-5/7-7/8--8--8-----3--------|
-------------1-1/2/3-3-------------1-1/2/3-3-------------------------1--------|
 Middle (the heavy octave solo thingy)                        Back to chorus

------------------------------------------------------------------------------|
------------------------------------------------------------------------------|
------------------------------------------------------------------------------|
------------------------------------------------------------------------------|
------------------------------------------------------------------------------|
------------------------------------------------------------------------------|
Comments