Jj72 - Oxygen Chords & Tabs

 

Oxygen Chords & Tabs

Jj72 Chords & Tabs

Version: 3 Type: Chords 0 ratings
1 star 2 stars 3 stars 4 stars 5 stars
comments

Oxygen Chords

   
Song:Oxygen

Written by Mark Greaney for JJ72

Transcribed by Christopher Duffin


Chords


	 A	 A5	 E	 Bm	 Bm(open)	 				
e--------*-------*-------0--------2--------0--------------
A--------0-------0-------2--------2--------0--------------
D--------2-------2-------2--------4--------4--------------
G--------2-------2-------1--------4--------4--------------
B--------2-------0-------0--------3--------3--------------
E--------0-------0-------*--------2--------2--------------


[ Tab from: http://www.guitartabs.cc/tabs/j/jj72/oxygen_crd_ver_3.html ]
	C#m	 Dm	 Abar	  B	
e--------4--------5-------5-------7------------------------
A--------4--------5-------7-------9------------------------
D--------6--------7-------7-------9------------------------
G--------6--------7-------6-------8------------------------
B--------5--------6-------5-------7------------------------
E--------4--------5-------5-------7------------------------


1st verse

A             A5   E         *3
Short Sleeves Warm Skin...

Chorus

Bm		Bm(open)  E  *2
Bm    C#m  Dm

2nd verse

A A5 A A5 A Bm(open) E       *3

Repeat Chorus

Then
W/Dist
Abar    Bm(open)  E          *3

End by playing Abar B E softly
a few times ending on A

Sorry I don\'t have the lyrics, I\'ve only heard it twice.
A simple song but feel free to make any corrections






Comments