Jj72 - October Swimmer Chords & Tabs

 

October Swimmer Chords & Tabs

Jj72 Chords & Tabs

Version: 3 Type: Tab 0 ratings
1 star 2 stars 3 stars 4 stars 5 stars
comments

October Swimmer Tab

   
JJ72
October Swimmer

Tabbed by Benji

      C                        Am
e --------------||---------------
B --------------||---------------   
G --------------||----------------  
D -------10-----||-----7--------   Repeat these patterns
A ----10----10--||---7--7------    
E --8-----------||-5------7-----

        F
e ------------
B ------------
G --10-------
D --10------- Repeat this chord a few times
A --8--------
E ------------

          C                           Am
e ---------------------------
B ----------------------------   
G ---------------------------  Two guitars, one plays chords
D -------10---------7-------    other plays this ««
A ----10----------7--------    
E --8-----------5-----------

       F
e ------------
B ------------
G --10-------
D --10------- Repeat this chord a few times
A --8--------
E ------------

          C 
e ------------
B ------------   
G ------------  Two guitars, one plays chords
D -------10---    other plays this ««
A ----10------    
E --8---------   Keep repeating till

            Am
e ---------------
B ---------------   
G --------------      Two guitars, one plays chords
D --------7------    other plays this ««
A ------7-------    
E ----5----------  Repeat as needed

         F
e --Repeat this chord------
B --------------------
G --10--10--10--------
D --10--10--10---------
A --8---8---8---------
E ----------------------

Solo
One guitar plays this:

          C 
e ------------
B ------------   
G ------------
D -------10---  
A ----10------    
E --8---------   Keep repeating till

 
           Am
e ---------------
B ---------------   
G --------------     Repeat as needed
D --------7------   
A ------7-------    
E ----5---------- 
[ Tab from: http://www.guitartabs.cc/tabs/j/jj72/october_swimmer_tab_ver_3.html ]
Other guitar plays solo:

e -------------------------------------------------------------
B -------------------|-Repeat note 14-|------------------------
G ------------------------|-|-----------------------------------
D -10-9-------------------14-12---------------------------------
A ------12-10-12b13b12b13--------14-12-14-14b15b14-12-12b14b12--
E --------------------------------------------------------------

e ------------------------7-7-7-5-5-2-1-0-----
B -------------------------------------------
G --------------------------------------------
D --15-15-15-14-14-12-7-------------------------
A ---------------------------------------------
E --------------------------------------------

End Solo

         C 
e ------------
B ------------   
G ------------  Two guitars, one plays chords
D -------10---    other plays this ««
A ----10------    
E --8---------   Keep repeating till

            Am
e ---------------
B ---------------   
G --------------      Two guitars, one plays chords
D --------7------    other plays this ««
A ------7-------    
E ----5----------  Repeat as needed

         F
e ----------------------
B ----------------------
G --10--10--12--10------
D --10--10--10--8--10---
A --8---8---8---8--10---
E ------------------8----

Repeat C pattern A and F pattern till

Outro

e --------------------------------------------------------
B --13-15-13-12-13-12-10-5-6-5-3-sl-0-slide up and fade---
G  -------------------------------------------------------
D -------------------------------------------------------
A -------------------------------------------------------
E -------------------------------------------------------

Ok another tabbed mess by me. The solo is'nt quite correct
'cos i tabbed this on my acoustic guitar.
E-mail me at benjamin_no1@hotmail.com for any questions,
corrections blah blah blah.
Comments