Jj72 - October Swimmer Chords & Tabs

 

October Swimmer Chords & Tabs

Jj72 Chords & Tabs

Version: 1 Type: Tab 0 ratings
1 star 2 stars 3 stars 4 stars 5 stars
comments

October Swimmer Tab

JJ72 - October Swimmer

STANDARD TUNING

   INTRO (Guitar1 - acoustic)  
-|----0---0---0----0---------0---0---0----0--------|-----------------
-|------1---1---1----1---1-----1---1---1----1---1--|-----------------
-|---------------------0----------------------0----|-----------------
-|-------------------------------------------------|-----------------
-|--3----------------------3-----------------------|-----------------
-|-------------------------------------------------|-----------------
                                                                              
VERSE (Guitar1) 
-|-------------------------------------------------|-----------------
-|-1-1-1-1-1-1-1-1-1-1-1-1-1-1-0-1-0-1-1-1-0-1-1-1-|-----------------
-|-0-0-0-0-0-0-0-0-0-0-0-0-2-2-2-2-2-2-2-2-2-2-2-2-|-----------------
-|-2-2-0-2-0-2-2-2-2-2-2-2-2-2-2-2-2-2-2-2-2-2-2-2-|-x2--------------
-|-3-3-3-3-3-3-3-3-3-3-3-3-0-0-0-0-0-0-0-0-0-0-0-0-|-----------------
-|-------------------------------------------------|-----------------
                                                                              
   VERSE FILL (Guitar2 - electric)
-|-------------------------------------------------|-----------------
-|-------------------------------------------------|-----------------
-|-----0-----------------------2-------------------|-----------------
-|---2-----------------------2---------------------|-----------------
-|-3-----------------------0-----------------------|-----------------
-|-------------------------------------------------|-----------------
                                                                              
   Guitar1
-|-1-1-1-1-1-1-1-1-1-1-1-1-3-3-3-3-3-3-3-3-3-3-3-3-|-----------------
-|-3-3-3-3-3-3-3-3-3-3-3-3-0-0-0-0-0-0-0-0-0-0-0-0-|-----------------
-|-2-2-2-2-2-2-2-2-2-2-2-2-0-0-0-0-0-0-0-0-0-0-0-0-|-----------------
-|-0-0-0-0-0-0-0-0-0-0-0-0-0-0-0-0-0-0-0-0-0-0-0-0-|-----------------
-|-------------------------2-2-2-2-2-2-2-2-2-2-2-2-|-----------------
-|-------------------------3-3-3-3-3-3-3-3-3-3-3-3-|-----------------
[ Tab from: http://www.guitartabs.cc/tabs/j/jj72/october_swimmer_tab.html ]
CHORUS (Guitars 1 and 2) Pick or strum
-|-------------------------------------------------|-----------------
-|-------------------------------------------------|-----------------
-|-----0-----0-----0-----0-----2-----2-----2-----2-|-----------------
-|---2-----2-----2-----2-----2-----2-----2-----2---|-----------------
-|-3-----3-----3-----3-----0-----0-----0-----0-----|-----------------
-|-------------------------------------------------|-----------------
                                                                              
   
-|-1-----------------------------------------------|-----------------
-|-2-----------------------------------------------|-----------------
-|-3-----------------------0-----------------------|-----------------
-|-0-----------------------0-----------------------|-----------------
-|-------------------------2-----------------------|-----------------
-|-------------------------3-----------------------|-----------------
       
SOLO over CHORUS chords (Guitar2) (w/wah) 
-|---------------------------------------------------------|---------
-|---------------------------------------------------------|---------
-|-9-9-9-9-9-9-9-9-9-9-9-7-5\4-4-4-4-4b5-2-2-2p0-2b3b2-0h2-|---------
-|---------------------------------------------------------|---------
-|---------------------------------------------------------|---------
-|---------------------------------------------------------|---------
                                                                              

-|---------------------------------------------------------|---------
-|---------------------------------------------------------|---------
-|-9-9-9-9-9-9-9-9-9-9-9-7-5\4-4-4-4-4b5-2-2-2p0-2b4b2-0h2-|---------
-|---------------------------------------------------------|---------
-|---------------------------------------------------------|---------
-|---------------------------------------------------------|---------
                                                                              

-|---------------------------------------------------|---------------
-|---------------------------------------------------|---------------
-|-10--10--10-9--9-7-2--16-16-16-16-14-12--10--9--7--|---------------
-|---------------------------------------------------|---------------
-|---------------------------------------------------|---------------
-|---------------------------------------------------|---------------
                                  

I think that this is all right e-mail me corrections at cult88@yahoo.co.uk                                            
Comments