Jj72 - Long Way South Chords & Tabs

 

Long Way South Chords & Tabs

Jj72 Chords & Tabs

Version: 1 Type: Tab 0 ratings
1 star 2 stars 3 stars 4 stars 5 stars
comments

Long Way South Tab

#----------------------------------PLEASE NOTE--------------------------------#
#This file is the author's own work and represents their interpretation of the#
#song. You may only use this file for private study, scholarship, or research.#
#-----------------------------------------------------------------------------#
#-- File created with Instab - http://www.pconline.com/~smcarey/instab.html --#
#-----------------------------------------------------------------------------#

Author/Artist: JJ72
Title: Long Way South
Album: JJ72
Transcribed by: Joe Siddons
Email: joe.siddons@nme.com

------------------------------------------------------------------------------
------------------------------------------------------------------------------
-11-11-11-11/14-14-14-14/11-11-11-11/14-14-14-14/-----------------------------
-0--0--0--0--0--0--0--0--0--0--0--0--0--0--0--0-------------------------------
-9--9--9--9-/12-12-12-12/9--9--9--9-/12-12-12-12/-----------------------------
------------------------------------------------------------------------------
 The sort of drum machine thing kicks in for four bars.                       

------------------------------------------------------------------------------
------------------------------------------------------------------------------
-11-11-11-11/14-14-14-14/11-11-11-11/4-4-4/6-6-6------------------------------
-0--0--0--0--0--0--0--0--0--0--0--0--0-0-0-0-0-0------------------------------
-9--9--9--9-/12-12-12-12/9--9--9--9-/2-2-2/4-4-4------------------------------
------------------------------------------------------------------------------
  Mute the open strings, for all the octave chords.                           
[ Tab from: http://www.guitartabs.cc/tabs/j/jj72/long_way_south_tab.html ]
------------------------------------------------------------------------------
------------------------------------------------------------------------------
--11-11-11-11/14-14-14-14/11-11-11-11/4-4/6-6---------------------------------
--0--0--0--0--0--0--0--0--0--0--0--0--0-0-0-0---------------------------------
--9--9--9--9-/12-12-12-12/9--9--9--9-/2-2/4-4---------------------------------
------------------------------------------------------------------------------
  (Torrential high seas, dragged me to my knees)                              

------------------------------------------------------------------------------
------------------------------------------------------------------------------
--11-11-11-11/14-14-14-14/11-11-11-11-4-4-6-6---------------------------------
--0--0--0--0--0--0--0--0--0--0--0--0--0-0-0-0---------------------------------
--9--9--9--9-/12-12-12-12/9--9--9--9-/2-2/4-4---------------------------------
------------------------------------------------------------------------------
 (Bleeding perfumed blood, magic mixed with mud..)                            

------------------------------------------------------------------------------
------------------------------------------------------------------------------
--6-6/7--7--7--7\6--6--6--6/7--7--7--7\6--6--6--6/7--7--7--7\6--6--6----------
--0-0-0--0--0--0-0--0--0--0-0--0--0--0-0--0--0--0-0--0--0--0-0--0--0----------
--4-4/5--5--5--5\4--4--4--4/5--5--5--5\4--4--4--4/5--5--5--5\4--4--4----------
------------------------------------------------------------------------------
 (and grace, i need you to ease my place in this world, a face i dont         

------------------------------------------------------------------------------
-------------------2--2--2-2-2-2----------------------------------------------
------6\4--4--4\2--2--2--2-2-2-2----------------------------------------------
------0-0--0--0-2--2--2--2-2-2-2----------------------------------------------
------4\2--2--2\0--0--0--0-0-0-0----------------------------------------------
------------------------------------------------------------------------------
      to ever...) Repeat again with the second verse.                         

-----------------------------------------------/------------------------------
-----------------------------------------------\--2--2--2--2-2-2-2------------
--11-11-11-11\9--9--9--9\7--7--7--7\6--6--6--6-/--2--2--2--2-2-2-2------------
--0--0--0--0--0--0--0--0-0--0--0--0-0--0--0--0-\--2--2--2--2-2-2-2------------
--9--9--9--9-\7--7--7--7\5--5--5--5\4--4--4--4-/--0--0--0--0-0-0-0------------
-----------------------------------------------\------------------------------
  Repeat this middle bit four times.              Go back to the first verse  

Comments