Jj72 - Improv Chords & Tabs

 

Improv Chords & Tabs

Jj72 Chords & Tabs

Version: 1 Type: Tab 0 ratings
1 star 2 stars 3 stars 4 stars 5 stars
comments

Improv Tab

improv by jj72 posted by Dean Turner

the other tab of this song on this site i don't think is much use so here's the 
version that is 100% correct


INTRO/PICKED PART

-|---------------------------------|-
-|---------------------------------|-
-|-----9-------9-------8-------8---|-
-|---6---6---6---6---6---6---6---6-|-x2
-|---------------------------------|-
-|-0-------0-------0-------0-------|-




-|-----------------------------------|-
-|-----10-------10-------9-------9---|-
-|-----------------------------------|-
-|---7----7---7----7---7---7---7---7-|-x2
-|-0--------0--------0-------0-------|-
-|-----------------------------------|-

                              
   STRUMMED PART
[ Tab from: http://www.guitartabs.cc/tabs/j/jj72/improv_tab.html ]
-|-0-0-0-0-0-0-0-0-0-0-0-0-|----|-0-0-0-0-0-0-0-0-0-0-0-0-|-
-|-0-0-0-0-0-0-0-0-0-0-0-0-|----|-2-2-2-2-2-2-2-2-2-2-2-2-|-
-|-1-1-1-1-1-1-1-1-1-1-1-1-|----|-2-2-2-2-2-2-1-1-1-1-1-1-|-
-|-2-2-2-2-2-2-1-1-1-1-1-1-|-x2-|-2-2-2-2-2-2-2-2-2-2-2-2-|-x2
-|-2-2-2-2-2-2-2-2-2-2-2-2-|----|-0-0-0-0-0-0-0-0-0-0-0-0-|-
-|-0-0-0-0-0-0-0-0-0-0-0-0-|----|-0-0-0-0-0-0-0-0-0-0-0-0-|-




LYRICS

decaying as i am
i need not some promised land
i know i am failing
acceptence was the plan

no silence in the sea
nothing tranquil awaits me
useless and used up
too much using to do

(Strumming starts)

i have choosen everything
this is what makes it so bad
no matter what the action
situation was created by me

my life is different
this grey streets will only get me down
they will never fool me
and integrate me as a clown

decaying as i am
need not some promised land
i know i am failing
acceptence was the plan

no silence in the sea
nothing tranquil awaits me
useless and used up
too much using to do

decaying as i am
need not some promised land
i know i am failing
acceptence was the plan

stumbling through patches
of flowered mortality
my daze it is special
you my goddess to be.



well thats it the best song about teenage angst ever written 100% correct

Comments