Jj72 - Half Three Chords & Tabs

 

Half Three Chords & Tabs

Jj72 Chords & Tabs

Version: 1 Type: Bass Tab 0 ratings
1 star 2 stars 3 stars 4 stars 5 stars
comments

Half Three Bass Tab

   
-------------------------------------------------------------------------------
			     Half three - JJ72
-------------------------------------------------------------------------------

Tabbed By : Flippo
e-mail: flippo_id@yahoo.com

Tuning:Normal

Im not so sure about the chorus but if you figure it out right, please let me
know.

INTRO / VERSES

E |----------------------------|
LB|----------------------------|
A |-3/5-5--2/4-4--1/2-2--------|Make a lot of repetitons.
E |----------------------3-2-0-|(listen to the song for timing)

CHORUS
[ Tab from: http://www.guitartabs.cc/tabs/j/jj72/half_three_btab.html ]
E |-------------------------|
LB|-------------------------|
A |---0-2-4-5-5-4-2-0-------|
E |-3-----------------3-2-0-|

BRIDGE (It sounds similar to the Intro/verses but the fingering is a little
bit faster)

E |---------------------|-------|
LB|---------------------|-------|
A |-5-5-5--4-4-4--2-2-2-|-------|Repeats twice.
E |---------------------|-3-2-0-|

I think this is very easy, although, its fun to play.


| /  slide up
| \  slide down
| h  hammer-on
| p  pull-off
| ~  vibrato
| +  harmonic
| x  Mute note
===============================================================================
Comments