Jj72 - Formulae Chords & Tabs

 

Formulae Chords & Tabs

Jj72 Chords & Tabs

Version: 1 Type: Tab 0 ratings
1 star 2 stars 3 stars 4 stars 5 stars
comments

Formulae Tab

Hello, am gerry, big jj fan. If u know any other tabs for JJ72, or hav any info. snd to :
Gerryyy@hotmail.com



Intro riff:
           
		   
Intro riff:

E--9-9-9-------------9-9-9------------
B---------10--------------10---------
G-----------9---7--6---------9--7--7-
D------------------------------------
A------------------------------------
E------------------------------------


Verse

E--------------------------------------
B--------------------------------------
G--------------------------------------
D--11-11-9-7--12-12-12-14--------------
A--11-11-9-7--12-12-12-14--------------
E---9--9-7-5--10-10-10-12--------------repeat zillion of times

[ Tab from: http://www.guitartabs.cc/tabs/j/jj72/formulae_tab.html ]
Chorus
-|-5-5-5-5-5-5-5-5-5-5-5-5-5-5-5-5-5-5--
-|-5-5-5-5-5-5-5-5-6-6-6-6-6-6-6-6-6-6--
-|-6-6-6-6-6-6-6-6-7-7-7-7-7-7-7-7-7-7--
-|-7-7-7-7-7-7-7-7-7-7-7-7-7-7-7-7-7-7--
-|-7-7-7-7-7-7-7-7-5-5-5-5-5-5-5-5-5-5--
-|-5-5-5-5-5-5-5-5-5-5-5-5-5-5-5-5-5-5--


Middle 
-|-5-5-5-5-5-10-10-10-10-10-10--
-|-5-5-5-5-5-10-10-10-10-10-10--
-|-6-6-6-6-6-11-11-11-11-11-11--
-|-7-7-7-7-7-12-12-12-12-12-12--
-|-7-7-7-7-7-12-12-12-12-12-12--
-|-5-5-5-5-5-10-10-10-10-10-10--x2


-|-17-17-17-17-17-10-10-10-10-10-10--
-|-17-17-17-17-17-10-10-10-10-10-10--
-|-18-18-18-18-18-11-11-11-11-11-11--
-|-19-19-19-19-19-12-12-12-12-12-12--
-|-19-19-19-19-19-12-12-12-12-12-12--
-|-17-17-17-17-17-10-10-10-10-10-10--x2 
Comments