Jj72 - City Chords & Tabs

 

City Chords & Tabs

Jj72 Chords & Tabs

Version: 1 Type: Tab 0 ratings
1 star 2 stars 3 stars 4 stars 5 stars
comments

City Tab

   
Tabbed by gerry

Any problems, info or pictures of jj72, e-mail me.
********************i-am-jj72@hotmail.com***********************
CITY

INTRO 
e-15-15-15-15-15-15-15-15-14-14-14-14-14-14-14-14-12-12---------------------------------------------------------|
B-12-12-12-12-12-12-12-12-12-12-12-12-12-12-12-12-12-12---12-12-12-12-12-13-13-13-13-13-12-12-12-12-12-12-12-12-|
G---------------------------------------------------------12-12-12-12-12-12-12-12-12-12-12-12-12-12-12-12-12-12-|
D---------------------------------------------------------------------------------------------------------------|
A---------------------------------------------------------------------------------------------------------------|
E---------------------------------------------------------------------------------------------------------------|
Play the intro a load of times through the song

thru the loss the pain
e----------------------------------------------------------------------|
B----------------------------------------------------------------------|
G----------------------------------------------------------------------|
D-14-12-10-10-10-10-10-10-10-10-10-10-10-10----------------------------|
A-14-12-10-10-10-10-10-10-10-10-10-10-10-10----------------------------|
E-12-10--8--8--8--8--8--8--8--8--8--8--8--8----------------------------|
[ Tab from: http://www.guitartabs.cc/tabs/j/jj72/city_tab.html ]
oh the love you'll gain...................................................
   (B)(A)(B)
e----------------------------------------------------------------------|
B----------------------------------------------------------------------|
G----------------------------------------------------------------------|
D-9-7-9-9-10-10-9------------------------------------------------------|
A-9-7-9-9-10-10-9--7-9-------------------------------------------------|
E-7-5-7-7-8--8--7--5-3-------------------------------------------------|
 
fINISH CHORUS PLAYING THIS:
e-12-10--8--8--8--8--8--8--8--8--8--8--8--8---7--5--3-----------------------|
B-12-10--8--8--8--8--8--8--8--8--8--8--8--8---7--5--3-----------------------|
G-13-11--9--9--9--9--9--9--9--9--9--9--9--9---8--6--4-----------------------|
D-14-12-10-10-10-10-10-10-10-10-10-10-10-10---9--7--5-----------------------|
A-14-12-10-10-10-10-10-10-10-10-10-10-10-10---9--7--5-----------------------|
E-12-10--8--8--8--8--8--8--8--8--8--8--8--8---7--5--3-----------------------|

e----------------------------------------------------------------------------------------|
B----------------------------------------------------------------------------------------|
G-12-12-12-12-12-12-12-12-11-11-11-11-11-11-11-11-9-9-9-9-9-9-9-9--17-17-17-16-16-16-14--|
D-12-12-12-12-12-12-12-12-11-11-11-11-11-11-11-11-9-9-9-9-9-9-9-9--17-17-17-16-16-16-14--|
A-10-10-10-10-10-10-10-10--9--9--9--9--9--9--9--9-7-7-7-7-7-7-7-7--15-15-15-14-14-14-12--|
E----------------------------------------------------------------------------------------|

e||-------------------------------------------------------------------------|
B||-------------------------------------------------------------------------|
G||-12-12-12-12-12-12-12-12-11-11-11-11-11-11-11-11-9-9-9-9-9-9-9-9-9-9-9-9-|
D||-12-12-12-12-12-12-12-12-11-11-11-11-11-11-11-11-9-9-9-9-9-9-9-9-9-9-9-9-|
A||-10-10-10-10-10-10-10-10--9--9--9--9--9--9--9--9-7-7-7-7-7-7-7-7-7-7-7-7-|
E||-------------------------------------------------------------------------|
Comments