Jj72 - Always And Forever Chords & Tabs

 

Always And Forever Chords & Tabs

Jj72 Chords & Tabs

Version: 1 Type: Tab 0 ratings
1 star 2 stars 3 stars 4 stars 5 stars
comments

Always And Forever Tab

_______ _______ ______   ___
   |       |         /  /   \
   |       |        /       /
   |       |       /       /  
   |       |      /       /
__/     ___/     /       /___  by gerry


************i_am_jj72@hotmail.com****************
ALWAYS AND FOREVER
Intro
e--x--x--x--x--x--x--x--x--x----x--x--x--x--x--x--x--x--x------------|
B-13-13-13-13-13-13-13-13-13---13-13-13-13-13-13-13-13-13------------|
G-14-14-14-14-14-14-14-14-14---12-12-12-12-12-12-12-12-12------------|
D--------------------------------------------------------------------|
A--------------------------------------------------------------------|
E--------------------------------------------------------------------|


INTERLUDE x2
e--x--x--x--x--x----------------x--x--x--x--x------------------------|
B-13-13-13-13-13---15b16--15---13-13-13-13-13---15b16--15------------|
G-14-14-14-14-14---------------12-12-12-12-12------------------------|
D--------------------------------------------------------------------|
A--------------------------------------------------------------------|
E--------------------------------------------------------------------|

VERSE

e--x--x--x--x--x--x--x--x--x----x--x---x--x--x--x--x----x--x---x--x--x--x--x--|
B-13-13-13-13-13-13-13-13-13---13-13--12-13-12-13-12---13-13--12-13-12-13-12--|
G-14-14-14-14-14-14-14-14-14---12-12--12-12-12-12-12---12-12--12-12-12-12-12--|
D-----------------------------------------------------------------------------|
A-----------------------------------------------------------------------------|
E-----------------------------------------------------------------------------|

BRIDGE x3 
[ Tab from: http://www.guitartabs.cc/tabs/j/jj72/always_and_forever_tab.html ]
e--x--x--x---x---x---------------------------------------------------|
B-13-13-13--12--12---14b15--12--14b15--12--12------------------------|
G-12-12-12--12--14---------------------------------------------------|
D--------------------------------------------------------------------|
A--------------------------------------------------------------------|
E--------------------------------------------------------------------|
 
oh always and forever
e--x--x--x--x--x--x--x--x--x----x--x--x--x--x--x--x--x--x------------|
B-13-13-13-13-13-13-13-13-13---15-15-15-15-15-15-15-15-15------------|
G-12-12-12-12-12-12-12-12-12---12-12-12-12-12-12-12-12-12------------|
D--------------------------------------------------------------------|
A--------------------------------------------------------------------|
E--------------------------------------------------------------------|

sOLO
e--------------------------------------------------------------------|
B--------------------------------------------------------------------|
G-17~--16-------14~--12-------10~--9--------9~-----------------------|
D---------14~-----------10~----------7~------------------------------|
A--------------------------------------------------------------------|
E--------------------------------------------------------------------|


e--------------------------------------------------------------------|
B--------------------------------------------------------------------|
G-17~--16------------------14~--12------------------10~--9--------9~-|
D---------14~--14-17-14~-----------10~--10----10~----------7~--------|
A------------------------------------------10------------------------|
E--------------------------------------------------------------------|


e||-12---13--15-----15---13--12----------------------------------------|
B||-12---12--12-----12---12--12----------------------------------------|
G||--------------------------------------------------------------------|
D||--------------------------------------------------------------------|
A||--------------------------------------------------------------------|
E||--------------------------------------------------------------------|


e||-12-----12-----12-13--15--15--15------------------------------------|
B||-12-----12-----12-12--12--12--12------------------------------------|
G||--------------------------------------------------------------------|
D||--------------------------------------------------------------------|
A||--------------------------------------------------------------------|
E||--------------------------------------------------------------------|


Comments