Jinxed - To Whom It May Concern Chords & Tabs

 

To Whom It May Concern Chords & Tabs

Jinxed Chords & Tabs

Version: 1 Type: Tab 0 ratings
1 star 2 stars 3 stars 4 stars 5 stars
comments

To Whom It May Concern Tab

   
-------------------------------------------------------------------------------    HTTP://WWW.JINXEDROCK.COM
			     "TO WHOM IT MAY CONCERN" - JINXED
-------------------------------------------------------------------------------
Tabbed by:Zach Canlas
Email:stratomaster1985@cox.net

Tuning:regular

| /  slide up
| \  slide down
| h  hammer-on
| p  pull-off
| ~  vibrato
| +  harmonic
| x  Mute note

-this band is pretty cool, they're an all girl band that sounds kickass!


  INTRO:
e|----------------------------------------------------------------------------|
B|----------------------------------------------------------------------------|
G|----------------------------------------------------------------------------|
D|---6-6-6-6--X4------------------------6-6-6-6--X4---------------------------|
A|---4-4-4-4----------7-7-7-7--X4-------4-4-4-4--------7-7-7-7-7X-------------|
E|--------------------5-5-5-5--------------------------5-5-5-5-5X-------------|
..............P.M............................PM.......................
        TRULY...          ALMOST...    ALWAYS...                   I ALWAYS-


  CHORUS:
e|--------------------------------------------------------------------------|
B|--------------------------------------------------------------------------|
G|---6--6--6-6-6---------------4--4--4-4-4--2--2--2-2-2---X--X--6-6-6-------|
D|---6--6--6-6-6--2--2--2-2-2--4--4--4-4-4--2--2--2-2-2---X--X--6-6-6-------|
A|---4--4--4-4-4--2--2--2-2-2--2--2--2-2-2--0--0--0-0-0---X--X--4-4-4-------|
E|----------------0--0--0-0-0-----------------------------------------------|

  CHORUS CONT'D...
e|--------------------------------------------------------------------------|
B|--------------------------------------------------------------------------|
G|--------------4--4--4-4-4--2--2--2-2-2------------------------------------|
D|-2--2--2-2-2--4--4--4-4-4--2--2--2-2-2------------------------------------|
A|-2--2--2-2-2--2--2--2-2-2--0--0--0-0-0------------------------------------|
E|-0--0--0-0-0--------------------------------------------------------------|


  VERSE 1:
e|--------------------------------------------------------------------------|
B|--------------------------------------------------------------------------|
G|--------------------------------------------------------------------------|
D|---6-6-6-6--X4-----------------6-6-6-6--X4----------------\-------(LAST)--|
A|---4-4-4-4-------7-7-7-7--X4---4-4-4-4------7-7-7-7--X4----\--X2--7-7-7-7-|
E|-----------------5-5-5-5--------------------5-5-5-5---------\-----5-5-5-5-|
-
.........P.M....................P.M.................................(OPEN)

[ Tab from: http://www.guitartabs.cc/tabs/j/jinxed/to_whom_it_may_concern_tab.html ]
  CHORUS:
e|--------------------------------------------------------------------------|
B|--------------------------------------------------------------------------|
G|---6--6--6-6-6---------------4--4--4-4-4--2--2--2-2-2-------6-6-6---------|
D|---6--6--6-6-6--2--2--2-2-2--4--4--4-4-4--2--2--2-2-2--X--X-6-6-6---------|
A|---4--4--4-4-4--2--2--2-2-2--2--2--2-2-2--0--0--0-0-0--X--X-4-4-4---------|
E|----------------0--0--0-0-0----------------------------X--X---------------|
  CHORUS CONT'D:
e|---------------------------------------------------------------------------|
B|----------------------------------------(SLOWER TEMPO)---------------------|X2
G|--------------4--4--4-4-4--2--2--2-2-2--6-6-6-6---------------4-4-4-4----2-|
D|-2--2--2-2-2--4--4--4-4-4--2--2--2-2-2--6-6-6-6-X2-2-2-2-2----4-4-4-4-X2-2-|
A|-2--2--2-2-2--2--2--2-2-2--0--0--0-0-0--4-4-4-4----2-2-2-2-X2-2-2-2-2----0-|
E|-0--0--0-0-0---------------------------------------0-0-0-0-----------------|


  VERSE 2:
e|---------------------------------------------------------------------------|
B|--------------------------------------(DIST.)------------------------------|
G|---------------------------------------------------------------------------|
D|--6-6-6-6--X4----------------6-6--6-6-6---6-6--6-6-6-6-\--4-4--4-4-4-------|
A|--4-4-4-4------7-7-7-7--X4---X-X--X-X-X---X-X--X-X-X-X--\-X-X--X-X-X-------|X2
E|---------------5-5-5-5-------4-4--4-4-4---4-4--4-4-4-4---\2-2--2-2-2-------|
  .......P.M........P.M....

  VERSE CONT'D:  GUITAR 1
G|--------------------------------------------------------------------------|
D|--6-6-6-6--X4----------------6-6-6-6--X4----------------------------------|
A|--4-4-4-4------7-7-7-7--X4---4-4-4-4-------7-7-7-7--X4--------------------|
E|---------------5-5-5-5---------------------5-5-5-5------------------------|
..........P.M.........P.M.........P.M..........P.M................

                 GUITAR 2(CLEAN)
G|--6-6--6-6-6--6-6--6-6-6-\--4-4--4-4-4--4-4--4-4-4-----\-------------------|
D|--X-X--X-X-X--X-X--X-X-X--\-X-X--X-X-X--X-X--X-X-X------\-X2---------------|
A|--4-4--4-4-4--4-4--4-4-4---\2-2--2-2-2--2-2--2-2-2-------\-----------------|
E|---------------------------------------------------------------------------|


  -CHORUS AGAIN:


  BRIDGE:
e|--------------------------------------------------------------------------------|
B|----------------------------------------------------------2-2--2-2-2X-----------|
G|--6-6--6-6-6X----\--4-4--4-4-4X---------------------------2-2--2-2-2X--X2-------|
D|--X-X--X-X-XX--X2-\-X-X--X-X-XX--X2-----2-2--2-2-2X-------0-0--0-0-0X-----------|
A|--4-4--4-4-4X------\2-2--2-2-2X---------2-2--2-2-2X--X2-------------------------|
E|----------------------------------------0-0--0-0-0X-----------------------------|

  BRIDGE CONT'D:
e|--------------------------------------------------------------------------|
B|--------------------------------------------------------------------------|
G|--6-6--6-6-6X---\--8-8--8-8-8---\--9-9--9-9-9-------2-2-2-2-2-2-2-2-2-2---|
D|--X-X--X-X-XX--X2\-X-X--X-X-X--X2\-X-X--X-X-X--X2---2-2-2-2-2-2-2-2-2-2---|
A|--4-4--4-4-4X-----\6-6--6-6-6-----\7-7--7-7-7-------0-0-0-0-0-0-0-0-0-0---|
E|--------------------------------------------------------------------------|


  -ONE LAST CHORUS X2
Comments