Jimmy Scones - Ode To Jimmy Scones Chords & Tabs

 

Ode To Jimmy Scones Chords & Tabs

Jimmy Scones Chords & Tabs

Version: 1 Type: Tab 0 ratings
1 star 2 stars 3 stars 4 stars 5 stars
comments

Ode To Jimmy Scones Tab

   
------------------------------------------------------------Ode to Jimmy Scones - Jimmy Scones and the Dank Toes
------------------------------------------------------------

By:Moky Scones
[ Tab from: http://www.guitartabs.cc/tabs/j/jimmy_scones/ode_to_jimmy_scones_tab.html ]
d=downstroke
u=upstroke
x=dont play string
CAPITAL LETTERS= chord name
~~~:whammy bar bend
h:hammer on
                         G                         d     
INTRO                    dd                        dd
e|-----------------------33-------2-3-2----2-3-2---22-----|
B|-----------------------00-----3--------3-------3-33-----|
G|-----------------------00------------------------22-----|
D|-----------------------00------------------------00-----|
A|-----2-3-2-----2-32----22------------------------xx-----|
E|---3---------3------3--33------------------------xx-----|
                         A                         E
                         dd                        dd
e|-----------------------00------------------------00-----|
B|-----------------------33------------------------00-----|
G|-----2-3-2-----2-3-2---33------------------------11-----|
D|---3---------3-------3-33-------1-2-1----1-2-1---22-----|
A|-----------------------00-----2--------2-------2-22-----|
E|-----------------------xx------------------------00-----|

VERSE
E          G          d          A
d du      d du        du du     du du

E          G          d          A
d du      d du        du du     du du

E          G          d          A
d du      d du        du du     du du

E          A          E
dd         dd         dd

CHORUS(Repeat intro0
VERSE
SOLO

e|-------5h7---------7h9-----------10h12--12-10------------|
B|----5h7--------7h9----------10h2--------------12-10------|
G|5h7--------7h9--------10h12-------------------------12-10|
D|-------------------------------------------------------12~
A|---------------------------------------------------------|
E|---------------------------------------------------------|

CHORUS
VERSE
OUTRO

e|----0----1----2----0-------------------------------------|
B|----0----0----3----3-------------------------------------|
G|----1----0----2----3-------------------------------------|
D|----2----0----0----3-------------------------------------|
A|----2----2----x----0-------------------------------------|
E|----0----3----x----x----5--7--9--12~~~~~~----------------|
Comments