Jimmy Page - Emerald Eyes Chords & Tabs

 

Emerald Eyes Chords & Tabs

Jimmy Page Chords & Tabs

Version: 1 Type: Tab 0 ratings
1 star 2 stars 3 stars 4 stars 5 stars
comments

Emerald Eyes Tab

   
#----------------------------------PLEASE NOTE---------------------------------#
#This file is the author's own work and represents their interpretation of the #
#song. You may only use this file for private study, scholarship, or research. #
#------------------------------------------------------------------------------##
From: mapl11@pop.com.br  (Marco A.P.Lima)
Subject: Emerald Eyes - Jimmy Page
Date: 21 Mar 2005  



EMERALD EYES - Jimmy Page 
Album: "Outrider" - 1988
(Jimmy Page)

TUNING: D A D G A D (Low to hide)
Strings=E(D), A, D, G, B(A), E(D)

This is my first TAB. Is about a great songs of this Unquestionably, one of the all-time most influential, 
important, and versatile guitarists in rock history .

I donīt know if Jimmy used this tuning in the song, but when I started to hear it,
to me, was something like the same sound (on the strings) of the songs with that same tuning 
in the Zepīsongs: "Kashimir", "Black Mountain Side" and the Yarbirdīsong "White Summer".
That it my own work. 

Jimmy just used acustic-guitar in the begin of the song, and after eletric guitar.
I think you will have to listen to the album to see exactly how the time right of the change 
position chords.   I hope you enjoy. 
Sorry for my english ! "Iīm Brazilian"


 
(*Acustic-guitar*)
[ Tab from: http://www.guitartabs.cc/tabs/j/jimmy_page/emerald_eyes_tab.html ]
   Let ring........                         Let ring........            (0:08)
 
D|-0--------------|------2--3--/--5--/--3---|--------------|-----------------|
A|-2--------------|--2-3-2--0--------------0|-3------------|-----------------|
G|-4--------------|--4---4------------------|-2------------|----0----2-------|    
D|-2--------------|--2---2------------------|-2------------|---3--3--2-------|
A|-0--------------|--0---0--0---------------|--------------|--3----3-0-------|
D|-0--------------|-------------------------|-3------------|-3-------0-------|
                                                                       (0:15)
D|------2--3--/--5--/--3---|--------------|-----------------|
A|--2-3-2--0--------------0|-3------------|-----------------|
G|--4---4------------------|-2------------|----0----2-------|    Repeat 1X
D|--2---2------------------|-2------------|---3--3--2-------|
A|--0---0--0---------------|--------------|--3----3-0-------|
D|-------------------------|-3------------|-3-------0-------|
                              
 
D|----------------------|--------------------|----------2-/--5---3-----------|
A|-2--3--5--3--2-----2--|--------------------|-2-----3-----------------3~----|
G|-2--2--2--2--2--2--2--|--------0------2----|-0-p-2----2-/--4---2-----2~----|
D|----------------------|------3---3----2----|-------------------------2~----|
A|----------------------|----3-------3--0----|-------------------------------|
D|-------------------3--|--3-----------------|-----------------------3-------|
 
 
D|-----------------|
A|-----------------|
G|------0----------|
D|--------3--------|
A|---3------3------|
D|-3-----------5~--|
 
                      Let ring.                       Repete 3X|(after3 times)
                                                                     (0:53)
D|---------------------------|---------------------------------|------------|
A|-5-5--3--3--3-------0------|-0--0---3-3-3------0---------5---|--2---------|
G|-4-4--0--0--0-------0------|-0--0---0-0-0------0---------4---|--4---------|
D|-0-0--0--0--0-------0------|-0--0---0-0-0------0---------0---|--2---------|
A|------3--2--0--------------|--------3-2-0--------------------|--0---------|
D|-4-5--------------4-4------|-2--4-----------4--4-----5---5---|------------|


(*Eletric-guitar*) 
 
D|------2--3-/--5--\--3-----------------------------|
A|-2-3----------------------------------------------|Repeat 2X
G|-----------------------2--------------0-----------|
D|--------------------------3-------------3---------|
A|-----------------------------------3------3---0---|
D|--------------------------3------3----------------|

D|----2-p--3-/--5--\--3----2----3-\--5---3----------------|
A|--------------------------------------------------------|Repeat 8X
G|----------------------------------------------0---------|
D|-------------------------------------------------3------|
A|------------------------------------------3-------3---0-|
D|---------------------------------------3----------------|
 
(*Acustic-guitar*)  
                      Let ring.                       Repete 3X|(after3 times)
                                                                       (0:53)
D|---------------------------|---------------------------------|------------|
A|-5-5--3--3--3-------0------|-0--0---3-3-3------0---------5---|--2---------|
G|-4-4--0--0--0-------0------|-0--0---0-0-0------0---------4---|--4---------|
D|-0-0--0--0--0-------0------|-0--0---0-0-0------0---------0---|--2---------|
A|------3--2--0--------------|--------3-2-0--------------------|--0---------|
D|-4-5--------------4-4------|-2--4-----------4--4-----5---5---|------------|

D|----------|
A|--5-~-----|
G|--4-~-----|
D|--0-~-----|
A|----------|
D|--5-~-----|
 
 
                      Let ring.                       Repete 3X|
                                                                      
D|---------------------------|---------------------------------|
A|-5-5--3--3--3-------0------|-0--0---3-3-3------0---------5---|
G|-4-4--0--0--0-------0------|-0--0---0-0-0------0---------4---|
D|-0-0--0--0--0-------0------|-0--0---0-0-0------0---------0---|
A|------3--2--0--------------|--------3-2-0--------------------|
D|-4-5--------------4-4------|-2--4-----------4--4-----5---5---|


 (Solos about this chords) - Repeat 2X|             Repeat 2X|

D|------------------------------------|----------------------|
A|--3----------3----------------------|--5-----10----4-------|
G|--4----------2----------------------|--2-----7-----2-------|
D|--2----------2----------------------|--4-----9-----2-------|
A|--0---------------------------------|--5-----10----0-------|
D|-------------3----------------------|----------------------|
 

This is just one simplificated form. Theres some solos very easy
to play. Itīs just to hear the song.


Marco Lima http://www.cavaloalado.cjb.net
Here I am, fifty-eight, and I still don't know what I want to be
when I grow up.  -- Peter Drucker
Comments