Jimmy Needham - Great Is Thy Faithfulness Chords & Tabs

 

Great Is Thy Faithfulness Chords & Tabs

Jimmy Needham Chords & Tabs

Version: 1 Type: Tab 0 ratings
1 star 2 stars 3 stars 4 stars 5 stars
comments

Great Is Thy Faithfulness Tab

This is just the basic picking. I add my own stuff onto it when I play. Especially for 
the ending, I just made up my own picking for that. Also, there's a chord he plays at the 
end of each chorus that I don't have on here. Just FYI. Okay, here's what I have:

Intro
e|------------------------------------------------|
B|---0----0-1-3--3----4-5-7--8----8h10-8--5-5--5-5|
G|---0----0-0-0--4----2-0-x--7----7----7--6-6--5-5|
D|---0----0-0-0--4----4-5-7--9----9----9--5-5--4-4|
A|--------------2----2--4-6-------------------5--5|
E|--3----3------------------0----0-------5--5-----|

Verses
e|-----------------------------------------------2----2----2-3-5----------------------------2|
B|---0----3--------3-3----0h1-0--1----0----2-3-5-3----1----1-----0----0-1-3-3----5-7-8-0----3|
G|---0---------------0--------0--0----0----0-----2----2----2-----0----0-0-0-0----0-----0----2|
D|---0-----------2---0----0h2-0--2----0----2-----0---0----0------0----0-2-0-2----5-----0---0-|
A|-------------3----------------3---------0-----------------------------0-2-3---4------------|
E|--3----------------3---3----3------3---------------------------3---3-----------------3-----|

Pre-Choruses
e|-------------|
B|---0----0-1-0|
G|---0----0-0-0|
D|---0----0-2-0|
A|-------------|
E|--3----3--3-3|
[ Tab from: http://www.guitartabs.cc/tabs/j/jimmy_needham/great_is_thy_faithfulness_tab.html ]
Choruses
e|--2---------------------------------2--------------------------------2|
B|--3----0----0h1-0-------1----1h3-1--3-5-7-0----0-1-3-3----5-7-8-0----3|
G|--2----0--------0--1----2----2---2--2-----0----0-0-0-0----0-----0----2|
D|--0----0----0h2-0--2----2----2---2-0------0----0-2-0-2----5-----0----0|
A|-------------------2---0----0--------------------0-2-3---4------------|
E|------3----3----3-0-----------------------3---3-----------------3-----|

(My) Ending
e|--------------- Pause for effect --3|
B|------0-----1-- Pause for effect --0|
G|--------------- Pause for effect --0|
D|----0-----2---- Pause for effect --0|
A|--------3------ Pause for effect --2|
E|--3------------ Pause for effect --3|

Intro

Verse 1
Great is Thy faithfulness, O God my Father
There is no shadow of turning with Thee
Thou changest not, Thy compassions, they fail not
As Thou hast been Thou forever will be

Intro

Verse 2
Summer and winter or springtime and harvest
Sun, moon, and stars in their courses above
Joined with all nature in manifold witness
To Thy great faithfulness, mercy, and love

Pre-Chorus 1

Chorus 1
Great is Thy faithfulness
Great is Thy faithfulness
Morning by morning new mercies I see
All I hath needed Thy hand hath provided
Great is Thy faithfulness
Lord, unto me

Verse 3
Pardon from sin and a peace that endureth
Thine own dear presence to cheer and to guide
Strength for today and bright hope for tomorrow
Blessings are mine with ten thousand beside

Pre-Chorus 2
Oh, Oh, Oh

Chorus 2
Great is Thy faithfulness
Great is Thy faithfulness
Morning by morning new mercies I see
All I hath needed Thy hand hath provided
Great is Thy faithfulness
Great is Thy faithfulness
Great is Thy faithfulness
Lord, unto me

Ending
Comments