Jimmy Fallon - Snowball Chords & Tabs

 

Snowball Chords & Tabs

Jimmy Fallon Chords & Tabs

Version: 1 Type: Tab 0 ratings
1 star 2 stars 3 stars 4 stars 5 stars
comments

Snowball Tab

   
--------------------------------------------------------------------------------
			    Snowball - Jimmy Fallon
--------------------------------------------------------------------------------
Tabbed by: Skynyrd1515

Tuning: EADGBe

Verse & Chorus
e|---0------2------3------5----------------------------------------------------|
B|---0------2------3------5----------------------------------------------------|
G|---1------3------4------6----------------------------------------------------|
D|---2------4------5------7----------------------------------------------------|
A|---2------4------5------7----------------------------------------------------|
E|---0------2------3------5----------------------------------------------------|

Break
[ Tab from: http://www.guitartabs.cc/tabs/j/jimmy_fallon/snowball_tab.html ]
e|---5------------------------------2--2---------------------------------------|
B|---5------------------------------3--3---------------------------------------|
G|---6------------------------------2--2---------------------------------------|
D|---7------------------------------0--0---------------------------------------|
A|---7-------------------------------------------------------------------------|
E|---5-------------------------------------------------------------------------|

| /  slide up
| \  slide down
| h  hammer-on
| p  pull-off
| ~  vibrato
| +  harmonic
| x  Mute note
===============================================================================
Lyrics : Snowball

Snow Day, school's closed and I can't wait, 
to go outside and I just might get into a snowball fight! 

Snowball 
Snowball 
Snowball fight 

Snowball 
Snowball 
Snowball fight 

Snowball 
Snowball 
Snowball fight 

Snowball 
Snowball 
Snowball fight 

I ran, a jump attack on a snowman, 
Turn around and didn't see 15 snowballs comin' at me! 

Snowball 
Snowball 
Snowball fight 

Snowball 
Snowball 
Snowball fight 

Snowball 
Snowball 
Snowball fight 

Snowball 
Snowball 
Snowball fight 

snow boots and a hand-me-down snowsuit snot is dripping from my nose
my lips are chapped and my cocoa froze and i got low and i can see
in through your window
sneak attack in a field use your toboggan as a shield

Snowball 
Snowball 
Snowball fight 

Snowball 
Snowball 
Snowball fight 

Snowball 
Snowball 
Snowball fight 

Snowball 
Snowball 
Snowball fight
Comments