Jimmy Fallon - Idiot Boyfriend Chords & Tabs

 

Idiot Boyfriend Chords & Tabs

Jimmy Fallon Chords & Tabs

Version: 2 Type: Bass Tab 0 ratings
1 star 2 stars 3 stars 4 stars 5 stars
comments

Idiot Boyfriend Bass Tab

Jimmy Fallon
"Idiot Boyfriend"
from The Bathroom Wall

Standard 4-string Bass Tuning (EADG)

\=Slide Down

   Theme
G|---2---4---6-|---7---9--9\\|
D|-------------|-------------|
A|-0---2---4---|-5---7-------|
E|-------------|-------------|

Or...

G|-------------|-------------|
D|---7---9---11|---12--14-14\|
A|-------------|-------------|
E|-5---7---9---|-10--12------|
[ Tab from: http://www.guitartabs.cc/tabs/j/jimmy_fallon/idiot_boyfriend_btab_ver_2.html ]
Or Mix 'em up; same thing through most of the song.

I think when Jimmy Fallon played it live on the SNL Super Bowl Halftime Special
on Guitar he played chords A-D-E, but the bass plays 3/4 of an A scale in octaves
through the verse/chorus.  I'm not sure what's played during the bridge, but
really, I'm just trying to take up space cause the f@#*ing site won't let me
submit it 'cause it's too f@#*ing short.  Peace and Love.
Comments