Jimmy Eat World - Work Chords & Tabs

 

Work Chords & Tabs

Jimmy Eat World Chords & Tabs

Version: 4 Type: Tab 0 ratings
1 star 2 stars 3 stars 4 stars 5 stars
comments

Work Tab

Tuning: down 1/2 step and drop D tuning or C#

intro/verse
|---------------------------------------------------------------------------|
|---------------------------------------------------------------------------|
|-------2--------2-----2---2---2--------------------------------------------|
|-----0--------0-----2---2---2---2------------------------------------------|
|---4--------0-----0--------------------------------------------------------|
|-4--------0----------------------------------------------------------------|

verse lead (comes in during "dont think were not serious")
|---5---5---5---5---5---5---------------------------------------------------|
|-5---5---5---5---5---5---5-------------------------------------------------|
|---------------------------------------------------------------------------|
|---------------------------------------------------------------------------|
|---------------------------------------------------------------------------|
|---------------------------------------------------------------------------|

Prechorus
|---------------------------------------------------------------------------|
|---------------------------------------------------------------------------|
|--------7------------------------------------------------------------------|
|-4------7------------------------------------------------------------------|             
|-4(x8)--0(x8)--------------------------------------------------------------|
|-4------0------------------------------------------------------------------|

Chorus 1(rythym)
|---------------------------------------------------------------------------|
|---------------------------------3-----------------------------------------|
|-2-----------------------2-------2-----------------------------------------|
|-2(x8)---2-------4-------2(x3)---0(x3)-------------------------------------|
|-0-------2(x8)---4(x8)---0-------0-----------------------------------------|
|---------2-------4---------------0-----------------------------------------|

Chorus 1(lead)
|---------------------------------------------------------------------------|
|---------------------------------------------------------------------------|
|-18------16-------14---------14------19------------------------------------|
|-X-(x8)--X-(x8)---X-(x8)-----X(x3)---X(x3)---------------------------------|
|-16------14-------12---------12------17------------------------------------|
|---------------------------------------------------------------------------|

Verse 2 is the same as 1 but the first two lines only the bass plays
[ Tab from: http://www.guitartabs.cc/tabs/j/jimmy_eat_world/work_tab_ver_4.html ]
Chorus 2(rythym)
|---------------------------------------------------------------------------|
|---------------------------------------------------------------------------|
|-2-------------------------------------------------------------------------|
|-2(x8)--2-------4------0---------------------------------------------------|
|-0------2(x8)---4(x8)--0(x8)-----------------------------------------------|
|--------2-------4------0---------------------------------------------------|
2nd time is same as chorus 1

Chorus 2(lead)
|---------------------------------------------------------------------------|
|---------------------------------------------------------------------------|
|-18-------16------14------7------------------------------------------------|
|-X-(x8)---X-(x8)--X(x8)---X-(x8)-------------------------------------------|
|-16-------14------12------5------------------------------------------------|
|---------------------------------------------------------------------------|
2nd time is same as chorus 1

Solo
|---------------------------------------------------------------------------|
|-----------------------------------------------------10--------------------|
|-9-9-9-9-9-7-6-7-6---------9-9-9-9-9-11-9-11-9-7-6-7----9------------------|
|-------------------7-6-7-9-------------------------------------------------|
|---------------------------------------------------------------------------|
|---------------------------------------------------------------------------|

|-12-12-12-12-12-10-9-10-12-12-12-12-12-10-9-10-9---------------------------|
|------------------------------------------------10-9-10-12-10--------------|
|---------------------------------------------------------------------------|
|---------------------------------------------------------------------------|
|---------------------------------------------------------------------------|
|---------------------------------------------------------------------------|

|---------------------------------------------------------------------------|
|-12-10-9-10-9--------------------------------------------------------------|
|---------------11-9--------------------------------------------------------|
|---------------------------------------------------------------------------|
|---------------------------------------------------------------------------|
|---------------------------------------------------------------------------|

Verse 3(same as 1)

Prechorus
|---------------------------------------------------------------------------|
|---------------------------------------------------------------------------|
|-------------7-------------14-14--------14-13-----7------------------------|
|-4-4---4-4---7--------4-4--X--X----4-4--X--X------7------------------------|              
|-4-4---4-4---0(x8)----4-4--12-12---4-4--12-11-----0(x8)--------------------|
|-4-4---4-4---0--------4-4----------4-4------------0------------------------|

Chorus 3 (same as chorus 2)

verse riff (fade out)

Well that sounds good to me any questions or comments put them in the comment box or
email me at snoutman928@yahoo.com
Comments