Jimmy Eat World - The Middle Chords & Tabs

 

The Middle Chords & Tabs

Jimmy Eat World Chords & Tabs

Version: 8 Type: Tab 0 ratings
1 star 2 stars 3 stars 4 stars 5 stars
comments

The Middle Tab

Jimmy Eat World - The Middle Solo

Listen to the timing for the song, sorry if it's hard to follow.
every note listed is played in the song, so just listen harder
if you get confused.

For the pull-offs, you really have to pluck the strings as you're
pulling off to get the same sound as Jim(pull off in a downwards
motion, rather than directly outwards). You cant do a cheesey
punk rock pull-off. It makes it harder to play it as fast
as him, but you can get it down in practice.


***Drop d tuning***

e-----------------------------------------------------------
B--2h3p2p0--------------------------------------------------
G----------2h4p2p0------------------------------------------
D-------------------2h4p2p0-----2h4p2p0----0----------------
A---------------------------4-0----------4-----4------------
D-----------------------------------------------------------

e-----------------------------------------------------------
B-----------------------------------------------------------
G-----------------------------------------------------------
D--------------------------0--------------------------------
A--4/7--5-4-5--4-5--4h5p4--0--------------------------------
D--------------------------0--------------------------------

e-----------------------------------------------------------
B--2h3p2p0--------------------------------------------------
G----------2h4p2p0------------------------------------------
D-------------------2h4p2p0-----2h4p2p0----0----------------
A---------------------------4-0----------4-----4------------
D-----------------------------------------------------------
[ Tab from: http://www.guitartabs.cc/tabs/j/jimmy_eat_world/the_middle_tab_ver_8.html ]
e-----------------------------------------------------------
B-----------------------------------------------------------
G-----------------------------------------------------------
D--0(x8)-2(x8)-4(x8)-5---5-5/7--5-4-5--4-5--5/7--5-4-5--4-0-
A-----------------------------------------------------------
D-----------------------------------------------------------


e----------------------------------------------------------
B----------------------------------------------------------
G--7-------7-7/9-----9-9/11----11-11/12-11-12--------------
D--------0---------0---------0-----------------------------
A----------------------------------------------------------
D----------------------------------------------------------

not sure how many times he hits these notes. A bit fast to
give a count you'll figure it out.
e--10(x?)-9(x?)-7(x?)-5(x?)--------------------------------
B----------------------------------------------------------
G----------------------------------------------------------
D----------------------------------------------------------
A----------------------------------------------------------
D----------------------------------------------------------

Then the final thing is simple
e---3---2--------------------------------------------------
B-----------5---3---2--------------------------------------
G-----------------------2----------------------------------
D----------------------------------------------------------
A----------------------------------------------------------
D----------------------------------------------------------

Comments Questions - Zephed85@hotmail.com
Comments