Jimmy Eat World - The Middle Chords & Tabs

 

The Middle Chords & Tabs

Jimmy Eat World Chords & Tabs

Version: 6 Type: Tab 0 ratings
1 star 2 stars 3 stars 4 stars 5 stars
comments

The Middle Tab

   
Artist: Jimmy Eat World
Track: "The Middle"
Album: Jimmy Eat World
Tabbed By Mark Brown E-mail markusbrownus2@hotmail.com

e----------------------------------------------------------|
B----------------------------------------------------------|
G----------------------------------------------------------|
D--4-4-0-0-0-0-0-0-4-4-4-4-2-2-------------0-0-0-0--------0|
A------------------------------4-4-4-4-4-4---------4-4-4-4-|
E----------------------------------------------------------|
P.M__________________________________________________________________|

   D         A         G5      D
e--2---------0-----------------2----------|
B--3---------2-----------------3----------|
G--2---------2-----------------2----------|
D--0---------2---------5-------0----------|2x
A--0---------0---------5-------0----------|
E------------0---------3------------------|
PALM MUTE EACH CHORD 16X


   D         A         G5      D
e--2---------0-----------------2----------|
B--3---------2-----------------3----------|
G--2---------2-----------------2----------|
D--0---------2---------5-------0----------|
A--0---------0---------5-------0----------|
E------------0---------3------------------|
strum each chords 8x



   D         A         G5      D
e--2---------0-----------------2----------|
B--3---------2-----------------3----------|
G--2---------2-----------------2----------|
D--0---------2---------5-------0----------|2x
A--0---------0---------5-------0----------|
E------------0---------3------------------|
PALM MUTE EACH CHORD 16X


   D         A         G5      D
e--2---------0-----------------2----------|
B--3---------2-----------------3----------|
G--2---------2-----------------2----------|
D--0---------2---------5-------0----------|2x
A--0---------0---------5-------0----------|
E------------0---------3------------------|
strum each chords 8x

solo play very quickly at the begining (listen to cd)
e------------------------------------------------------|
B------------------------------------------------------|
G--6h7p6-----------------------------------------------|
D--------9-7-5-4---------4-----------------------------|
A----------------5-4-5-7---5---7-5-4-5---4-5-7-5-------|
E--------------------------------------------------0~--|

[ Tab from: http://www.guitartabs.cc/tabs/j/jimmy_eat_world/the_middle_tab_ver_6.html ]
e----------------------------------------------------------|
B----------------------------------------------------------|
G--6h7p6---------------------------------------------------|
D-------9-7-5-4---------4----------------------------------|
A---------------5-4-5-7---4-5-5-5-5-7-7-7-7-9-9-9-9-10---10|
E----------------------------------------------------------|


e----------------------------------------------------------|
B----------------------------------------------------------|
G--------------------------------------------------9----9-11
D--------------------------------------12------12----------|
A-12---10-9-10---9-10--12-10-9-10-9------------------------|
E-----------------------------------10-----10-------10-----|

e----------------------------------------------------------|
B----------------------------------------------------------|
G-----11-12-11-12------------------------------------------|
D----------------------------------------------------------|
A----------------------------------------------------------|
E-10-------------------------------------------------------|

e-10-10-10-10-10-10-10-10-9-9-9-9-9-9-9-9-7-7-7-7-7-7-7-7--|
B-10-10-10-10-10-10-10-10-9-9-9-9-9-9-9-9-7-7-7-7-7-7-7-7--|
G----------------------------------------------------------|
D----------------------------------------------------------|
A----------------------------------------------------------|
E----------------------------------------------------------|


e-5-5-5-5-5-5-5-5--3---2---0----------------|
B-5-5-5-5-5-5-5-5--3---3---0--3--2--0-------|
G-----------------------------4--2--0-------|
D-------------------------------------------|
A-------------------------------------------|
E-------------------------------------------|


   D         A         G5      D
e--2---------0-----------------2----------|
B--3---------2-----------------3----------|
G--2---------2-----------------2----------|
D--0---------2---------5-------0----------|2x
A--0---------0---------5-------0----------|
E------------0---------3------------------|
PALM MUTE EACH CHORD 16X (start on A) after
"hey, don't right yourself off"


   D         A         G5      D
e--2---------0-----------------2----------|
B--3---------2-----------------3----------|
G--2---------2-----------------2----------|2x
D--0---------2---------5-------0----------|
A--0---------0---------5-------0----------|
E------------0---------3------------------|
strum each chords 8x
on second time have a slight pause in between each note
Comments