Jimmy Eat World - The Middle Chords & Tabs

 

The Middle Chords & Tabs

Jimmy Eat World Chords & Tabs

Version: 5 Type: Tab 0 ratings
1 star 2 stars 3 stars 4 stars 5 stars
comments

The Middle Tab

   
The Middle-Jimmy Eat World
Bleed American

Drop D:
D A D G B E

Intro:

Gtr 1. pm

e-----------------------------------------------------------------
b-----------------------------------------------------------------
g-----------------------------------------------------------------
d-4-4-0-0-0-0-0-0-0-0-0-4-4-4-4-4-2-2-----------------------------
a-------------------------------------4-4-4-4-4-4-4-4-4-4-4-4-4-4-
d-----------------------------------------------------------------

Gtr 2. pm

e-----------------------------------------------------------------
b-----------------------------------------------------------------
g-----------------------------------------------------------------
d-----------------------------------------------------------------
a-----------------------------------------------------------------
D-0-0-0-0-0-0-0-0-0-0-0-0-0-0-0-0-7-7-7-7-7-7-7-7-7-7-7-7-7-7-7-7-

Gtr 1. pm

e-----------------------------------------------------------------
b-----------------------------------------------------------------
g-----------------------------------------------------------------
d-0-0-0-0-0-0-0-------------------0-0-0-0-0-0-0-0-0-0-0-0-0-0-0-0-
a---------------4-4-4-4-4-4-4-4-4---------------------------------
d-----------------------------------------------------------------

Gtr 2. pm

e-----------------------------------------------------------------
b-----------------------------------------------------------------
g-----------------------------------------------------------------
d-----------------------------------------------------------------
a-----------------------------------------------------------------
D-5-5-5-5-5-5-5-5-5-5-5-5-5-5-5-5-0-0-0-0-0-0-0-0-0-0-0-0-0-0-0-7\

Verses: x2 pm

e-----------------------------------------------------------------
b-----------------------------------------------------------------
g-----------------------------------------------------------------
d-----------------------------------------------------------------
a-----------------------------------------------------------------
D-0-0-0-0-0-0-0-0-0-0-0-0-0-0-0-0-7-7-7-7-7-7-7-7-7-7-7-7-7-7-7-7-

e-----------------------------------------------------------------
b-----------------------------------------------------------------
g-----------------------------------------------------------------
d-----------------------------------------------------------------
a-----------------------------------------------------------------
D-5-5-5-5-5-5-5-5-5-5-5-5-5-5-5-5-0-0-0-0-0-0-0-0-0-0-0-0-0-0-0-0-

Gtr 2.

e-----------------------------------------------------------------
b-----------------------------------------------------------------
G-7-7-7-7-7-7-7-7-7-7-7-7-6-6-6-6-7-7-7-7-7-7-7-7-7-7-7-7-7-7-7-7-
D-0-0-0-0-0-0-0-0-0-0-0-0-0-0-0-0-0-0-0-0-0-0-0-0-0-0-0-0-0-0-0-0-
a-----------------------------------------------------------------
d-----------------------------------------------------------------
[ Tab from: http://www.guitartabs.cc/tabs/j/jimmy_eat_world/the_middle_tab_ver_5.html ]
e-----------------------------------------------------------------
b-----------------------------------------------------------------
G-4-4-2-2-2-2-2-2-2-2-2-2-6-6-6-6-7-7-7-7-7-7-7-7-7-7-7-7-7-7-7-7-
D-0-0-0-0-0-0-0-0-0-0-0-0-0-0-0-0-0-0-0-0-0-0-0-0-0-0-0-0-0-0-0-0-
a-----------------------------------------------------------------
d-----------------------------------------------------------------

Chorus:

e------2-----2------2-2-2----2-2----------------------------------
b------3-----3------3-3-3----3-3---------2------2-2-----2-2-2-2-2-
g------2-----2------2-2-2----2-2---------2------2-2-----2-2-2-2-2-
d------0-----0------0-0-0----0-0---------2------2-2-----2-2-2-2-2-
a------0-----0------0-0-0----0-0---0-----0------0-0-----0-0-0-0-0-
d------0-----0------0-0-0----0-0----------------------------------

e--------3-------3-3----3-3-3-3-3---2------2----2-2------2-2-2----
b--------3-------3-3----3-3-3-3-3---3------3----3-3------3-3-3----
g--------0-------0-0----0-0-0-0-0---2------2----2-2------2-2-2----
d--------0-------0-0----0-0-0-0-0---0------0----0-0------0-0-0----
a--------x-------x-x----x-x-x-x-x---0------0----0-0------0-0-0----
d-5------5-------5-5----5-5-5-5-5---0------0----0-0------0-0-0----

Guitar Solo:

e-----------------------------------------------------------------
b-2h3p2p0---------------------------------------------------------
g---------2h4p2p0-------------------------------------------------
d-----------------4h5p4p0---------4p0-0-------0-------------------
a-------------------------2h4p2p0---------4---------4-------------
d-----------------------------------------------------------------

e-----------------------------------------------------------------
b-----------------------------------------------------------------
g-----------------------------------------------------------------
d-----------------------------------------------------------------
a-/7---5-4--5-----4-5--4h5p4p0------------------------------------
d------------------------------0----------------------------------

e-----------------------------------------------------------------
b-2h3p2p0---------------------------------------------------------
g---------2h4p2p0-------------------------------------------------
d-----------------4h5p4p0---------4p0-0---------------------------
a-------------------------2h4p2p0---------4-----------------------
d-----------------------------------------------------------------

e-----------------------------------------------------------------
b-----------------------------------------------------------------
g-----------------------------------------------------------------
d-0-0-0-0-0-0-0-0-2-2-2-2-2-2-2-2-2-4-4-4-4--5-------5------------
a-----------------------------------------------------------------
d-----------------------------------------------------------------

e-----------------------------------------------------------------
b-----------------------------------------------------------------
g--------------------------------------7-7-7-7---7/9-----9/11-12--
d-7----5-4-5----4-5--7---5-4--5---4-0----------0------0-----------
a-----------------------------------------------------------------
d-----------------------------------------------------------------

trem pick this entire bar

e------------------------------------------------0---0---0--0-0-0-
b-15----15----14----14----12----12----10----10---8---7---5--3-2-0-
g-----------------------------------------------------------------
d-----------------------------------------------------------------
a-----------------------------------------------------------------
d-----------------------------------------------------------------

thatís it

trevor jones
timmy91199@yahoo.ca
Comments