Jimmy Eat World - The Middle Chords & Tabs

 

The Middle Chords & Tabs

Jimmy Eat World Chords & Tabs

Version: 14 Type: Tab 0 ratings
1 star 2 stars 3 stars 4 stars 5 stars
comments

The Middle Tab

Jimmy Eat world- The middle 


intro:
E-----------------------------------------------------------
B-----------------------------------------------------------
G-----------------------------------------------------------
D--44-0(8x)--4444---2222--------0000------0000--------------
A-------------------------4(8x)------4444-------------------
E-----------------------------------------------------------


verse:
E-----------------------------------------------------------
B-----------------------------------------------------------
G-----------------------------------------------------------
D--7777777777777777-----------------------------------------
A--5555555555555555-7777777777777777-5555555555555555-------
E-------------------5555555555555555-3333333333333333-------


E-----------------------------------------------------------
B-----------------------------------------------------------
G----------------------------------------------------------- 2x
D--7777777777777777-----------------------------------------
A--5555555555555555-----------------------------------------
E-----------------------------------------------------------

Hey, don't write yourself off yet.
It's only in your head you feel left out or
looked down on.
Just try your best, try everything you can.
And don't you worry what they tell themselves when you're away.


Chorus:
E--------------------------
B--------------------------
G--7-------------7---------2x
D--7-----7---5---7---------
A--5-----7---5---5---------
E--------5---3-------------

It just takes some time, little girl you're in the middle, 
out the ride.
Everything will be just fine, everything will be allright.



verse:
E-----------------------------------------------------------
B-----------------------------------------------------------
G-----------------------------------------------------------
D--7777777777777777-----------------------------------------
A--5555555555555555-7777777777777777-5555555555555555-------
E-------------------5555555555555555-3333333333333333-------

[ Tab from: http://www.guitartabs.cc/tabs/j/jimmy_eat_world/the_middle_tab_ver_14.html ]
E-----------------------------------------------------------
B-----------------------------------------------------------
G----------------------------------------------------------- 2x
D--7777777777777777-----------------------------------------
A--5555555555555555-----------------------------------------
E-----------------------------------------------------------

Hey, you know they're all the same.
You know you're doing better on your own, so don't buy in.
Live right now.
Yeah, just be yourself.
It doesn't matter if it's good enough for someone else.

Chorus:
E--------------------------
B--------------------------
G--7-------------7---------4x
D--7-----7---5---7---------
A--5-----7---5---5---------
E--------5---3-------------

It just takes some time, little girl you're in the middle, 
out the ride.
Everything will be just fine, everything will be allright.
It just takes some time, little girl you're in the middle, 
out the ride.
Everything will be just fine, everything will be allright

verse:
E-----------------------------------------------------------
B-----------------------------------------------------------
G-----------------------------------------------------------
D--7777777777777777-----------------------------------------
A--5555555555555555-7777777777777777-5555555555555555-------
E-------------------5555555555555555-3333333333333333-------


E-----------------------------------------------------------
B-----------------------------------------------------------
G----------------------------------------------------------- 2x
D--7777777777777777-----------------------------------------
A--5555555555555555-----------------------------------------
E-----------------------------------------------------------

Hey, don't write yourself off yet.
It's only in your head you feel left out or
looked down on.
Just do your best, do everything you can.
And don't you worry what the bitter hearts are gonna say

Chorus:
E--------------------------
B--------------------------
G--7-------------7---------4x
D--7-----7---5---7---------
A--5-----7---5---5---------
E--------5---3-------------

It just takes some time, little girl you're in the middle, 
out the ride.
Everything will be just fine, everything will be allright.
It just takes some time, little girl you're in the middle, 
out the ride.
Everything will be just fine, everything will be allright
Comments