Jimmy Eat World - Sweetness Chords & Tabs

 

Sweetness Chords & Tabs

Jimmy Eat World Chords & Tabs

Version: 9 Type: Tab 0 ratings
1 star 2 stars 3 stars 4 stars 5 stars
comments

Sweetness Tab

   
Artist: Jimmy Eat World
Song Title : Sweetness
Album: Bleed American
Tabbed By: Rodrigo Villanueva Delgado yoyo_v89@hotmail.com

Standard Tuning e,b,g,d,a,e.

Intro: "if you´re listening oh oh oh oh oh oh..." after that you play:

E-----------------------------------------------------------------------------|
B-----------------------------------------------------------------------------|
G-9-9-9-9-9-9-9-9-9-9-9-9-9-9-9-9-9-9-9-9-------------------------------------|
D-7-7-7-7-7-7-7-7-7-7-7-7-7-7-7-7-7-7-7-7-------------------------------------|
A-5-5-5-5-5-5-5-5-5-5-5-5-5-5-5-5-5-5-5-5-------------------------------------|
E-----------------------------------------------------------------------------|

Verse: "sing it back oh oh oh oh oh oh..."

E-----------------------------------------------------------------------------|
B-----------------------------------------------------------------------------|
G-12-12-12-12-12-12-12-12-12-12-12-12-12-12-12-12-12-12-12-12-----------------|
D-10-10-10-10-10-10-10-10-10-10-10-10-10-10-10-10-10-10-10-10-----------------|
A-8--8--8--8--8--8--8--8--8--8--8--8--8--8--8--8--8--8--8--8------------------|
E-----------------------------------------------------------------------------|

E-----------------------------------------------------------------------------|
B-----------------------------------------------------------------------------|
G-9-9-9-9-9-9-9-9-9-9-9-9-9-9-9-9-9-9-9-9-------------------------------------|
D-7-7-7-7-7-7-7-7-7-7-7-7-7-7-7-7-7-7-7-7-------------------------------------|
A-5-5-5-5-5-5-5-5-5-5-5-5-5-5-5-5-5-5-5-5-------------------------------------|
E-----------------------------------------------------------------------------|

Chorus: "i was spinning free oh oh oh oh oh oh..."

E-----------------------------------------------------------------------------|
B-----------------------------------------------------------------------------|
G-----------------------------------------------------------------------------|
D-8-8-8-8-8-8-8-8-8-8-8--10-10-10-10-10-10-10-10-10-10-10---------------------|
A-8-8-8-8-8-8-8-8-8-8-8--10-10-10-10-10-10-10-10-10-10-10---------------------|
E-6-6-6-6-6-6-6-6-6-6-6--8--8--8--8--8--8--8--8--8--8--8----------------------|

E-----------------------------------------------------------------------------|
B-----------------------------------------------------------------------------|
G-7-7-7-7-7-7-7-7-7-7-7-7-7-7-7-7-7-7-7-7-------------------------------------|
D-7-7-7-7-7-7-7-7-7-7-7-7-7-7-7-7-7-7-7-7-------------------------------------|
A-5-5-5-5-5-5-5-5-5-5-5-5-5-5-5-5-5-5-5-5-------------------------------------|
E-----------------------------------------------------------------------------|

E-----------------------------------------------------------------------------|
B-----------------------------------------------------------------------------|
G-----------------------------------------------------------------------------|
D-8-8-8-8-8-8-8-8-8-8-8--10-10-10-10-10-10-10-10-10-10-10---------------------|
A-8-8-8-8-8-8-8-8-8-8-8--10-10-10-10-10-10-10-10-10-10-10---------------------|
E-6-6-6-6-6-6-6-6-6-6-6--8--8--8--8--8--8--8--8--8--8--8----------------------|

E-----------------------------------------------------------------------------|
B-----------------------------------------------------------------------------|
G-10-10-10-10-10-10-10-10-10-10-10-10-10-10-10-10-10-10-10-10-----------------|
D-10-10-10-10-10-10-10-10-10-10-10-10-10-10-10-10-10-10-10-10-----------------|
A-8--8--8--8--8--8--8--8--8--8--8--8--8--8--8--8--8--8--8--8------------------|
E-----------------------------------------------------------------------------|

Interlude 1:
[ Tab from: http://www.guitartabs.cc/tabs/j/jimmy_eat_world/sweetness_tab_ver_9.html ]
E-----------------------------------------------------------------------------|
B-----------------------------------------------------------------------------|
G-----------------------------------------------------------------------------|
D-5-5-5-5-5-5-5-5-5-5-5--8-8-8-8-8-8-8-8-8-8-8--3-3-3-3-3-3-3-3-3-3-3---------|
A-5-5-5-5-5-5-5-5-5-5-5--8-8-8-8-8-8-8-8-8-8-8--3-3-3-3-3-3-3-3-3-3-3---------|
E-3-3-3-3-3-3-3-3-3-3-3--6-6-6-6-6-6-6-6-6-6-6--1-1-1-1-1-1-1-1-1-1-1---------|

Interlude 2:

E-1-1-1-1-1-1-1-1-1-1-1-1-1-1-1-1-1-------------------------------------------|
B-----------------------------------------------------------------------------|
G-----------------------------------------------------------------------------|
D-----------------------------------------------------------------------------|
A-----------------------------------------------------------------------------|
E-----------------------------------------------------------------------------|

No Drums Part (Solo):

E-----------------------------------------------------------------------------|
B-----------------------------------------------------------------------------|
G-12-12-12-12-12-12-12-12-12-12-12-12-12-12-12-12-12-12-12-12-----------------|
D-10-10-10-10-10-10-10-10-10-10-10-10-10-10-10-10-10-10-10-10-----------------|
A-8--8--8--8--8--8--8--8--8--8--8--8--8--8--8--8--8--8--8--8------------------|
E-----------------------------------------------------------------------------|

Interlude 3:

E-----------------------------------------------------------------------------|
B-----------------------------------------------------------------------------|
G-----------------------------------------------------------------------------|
D-3-3-3-3-3-3-3-3-3-3-3-3-3-3-3-3-3-3--5-5-5-5-5-5----------------------------|
A-3-3-3-3-3-3-3-3-3-3-3-3-3-3-3-3-3-3--3-3-3-3-3-3----------------------------|
E-1-1-1-1-1-1-1-1-1-1-1-1-1-1-1-1-1-1--3-3-3-3-3-3----------------------------|

E-----------------------------------------------------------------------------|
B-----------------------------------------------------------------------------|
G-----------------------------------------------------------------------------|
D-2-2-2-2-2-2-2-2-2-----------------------------------------------------------|
A-2-2-2-2-2-2-2-2-2-----------------------------------------------------------|
E-0-0-0-0-0-0-0-0-0-----------------------------------------------------------|

Outro: 

E-----------------------------------------------------------------------------|
B-----------------------------------------------------------------------------|
G-----------------------------------------------------------------------------|
D-8-8-8-8-8-8-8-8-8-8-8--10-10-10-10-10-10-10-10-10-10-10---------------------|
A-8-8-8-8-8-8-8-8-8-8-8--10-10-10-10-10-10-10-10-10-10-10---------------------|
E-6-6-6-6-6-6-6-6-6-6-6--8--8--8--8--8--8--8--8--8--8--8----------------------|

E-----------------------------------------------------------------------------|
B-----------------------------------------------------------------------------|
G-10-10-10-10-10-10-10-10-10-10-10-10-10-10-10-10-10-10-10-10-----------------|
D-10-10-10-10-10-10-10-10-10-10-10-10-10-10-10-10-10-10-10-10-----------------|
A-8--8--8--8--8--8--8--8--8--8--8--8--8--8--8--8--8--8--8--8------------------|
E-----------------------------------------------------------------------------|

That´s It.

Song Order:
 
Intro       x1
Verse       x3
Chorus      x1
Intro       x1
Verse       x3
Chorus      x2
Interlude 1 x4 (while playing interlude 2 a lot of times)
Solo        x1
Interlude 3 x4
Chorus      x2
Outro       x2 (while playing interlude 2 a lot of times)

Any question, coment, hate mail, please write me or any correction write me;
yoyo_v89@hotmail.com
Comments