Jimmy Eat World - Sweetness Chords & Tabs

 

Sweetness Chords & Tabs

Jimmy Eat World Chords & Tabs

Version: 7 Type: Tab 0 ratings
1 star 2 stars 3 stars 4 stars 5 stars
comments

Sweetness Tab

   
Jimmy Eat World - Sweetness
Tabbed by Iain Reilly
[ Tab from: http://www.guitartabs.cc/tabs/j/jimmy_eat_world/sweetness_tab_ver_7.html ]
 |Intro: (Guitar 1)                                                                 |
E|----------------------------------------------------------------------------------|
B|-6-6-6-6-6-6-6-6-6-6-6-6-6-6-6-6-6-6----------------------------------------------|
G|-5-5-5-5-5-5-5-5-5-5-5-5-5-5-5-5-5-5----------------------------------------------|
D|-3-3-3-3-3-3-3-3-3-3-3-3-3-3-3-3-3-3----------------------------------------------|
A|----------------------------------------------------------------------------------|
D|----------------------------------------------------------------------------------|
 |                                                                                  |
 |Verse: (Guitar 1)                                                                 |
E|----------------------------------------------------------------------------------|
B|-6-6-6-6-6-6-6-6-6-6-6-6-6-6-6-6-6-6----------------------------------------------|
G|-5-5-5-5-5-5-5-5-5-5-5-5-5-5-5-5-5-5----------------------------------------------|
D|-3-3-3-3-3-3-3-3-3-3-3-3-3-3-3-3-3-3-0-0-0-0-0-0-0-0-0-0-0-0-0-0-0-0-0-0----------|
A|-------------------------------------0-0-0-0-0-0-0-0-0-0-0-0-0-0-0-0-0-0----------|
D|-------------------------------------0-0-0-0-0-0-0-0-0-0-0-0-0-0-0-0-0-0----------|
 |"Are you listening..."                                                            |
 |Verse: (Guitar 2)                                                                 |
E|----------------------------------------------------------------------------------|
B|----------------------------------------------------------------------------------|
G|-------------------------------------9-9-9-9-9-9-9-9-9-9-9-9-9-9-9-9-9-9----------|
D|-------------------------------------x-x-x-x-x-x-x-x-x-x-x-x-x-x-x-x-x-x----------|
A|-------------------------------------7-7-7-7-7-7-7-7-7-7-7-7-7-7-7-7-7-7----------|
D|----------------------------------------------------------------------------------|
 |                                                                                  |
 |Verse: (Guitar 1)                                                                 |
E|----------------------------------------------------------------------------------|
B|-6-6-6-6-6-6-6-6-6-6-6-6-6-6-6-6-6-6----------------------------------------------|
G|-5-5-5-5-5-5-5-5-5-5-5-5-5-5-5-5-5-5----------------------------------------------|
D|-3-3-3-3-3-3-3-3-3-3-3-3-3-3-3-3-3-3-0-0-0-0-0-0-0-0-0-0-0-0-0-0-0-0-0-0----------|
A|-------------------------------------0-0-0-0-0-0-0-0-0-0-0-0-0-0-0-0-0-0----------|
D|-------------------------------------0-0-0-0-0-0-0-0-0-0-0-0-0-0-0-0-0-0----------|
 |"Sing it back..."                                                                 |
 |Verse: (Guitar 2)                                                                 |
E|----------------------------------------------------------------------------------|
B|----------------------------------------------------------------------------------|
G|-------------------------------------9-9-9-9-9-9-9-9-9-9-9-9-9-9-9-9-9-9----------|
D|-------------------------------------x-x-x-x-x-x-x-x-x-x-x-x-x-x-x-x-x-x----------|
A|-------------------------------------7-7-7-7-7-7-7-7-7-7-7-7-7-7-7-7-7-7----------|
D|----------------------------------------------------------------------------------|
 |                                                                                  |
 |Verse: (Guitar 1)                                                                 |
E|----------------------------------------------------------------------------------|
B|-6-6-6-6-6-6-6-6-6-6-6-6-6-6-6-6-6-6----------------------------------------------|
G|-5-5-5-5-5-5-5-5-5-5-5-5-5-5-5-5-5-5----------------------------------------------|
D|-3-3-3-3-3-3-3-3-3-3-3-3-3-3-3-3-3-3-0-0-0-0-0-0-0-0-0-0-0-0-0-0-0-0-0-0----------|
A|-------------------------------------0-0-0-0-0-0-0-0-0-0-0-0-0-0-0-0-0-0----------|
D|-------------------------------------0-0-0-0-0-0-0-0-0-0-0-0-0-0-0-0-0-0----------|
 |"String from your teather unwinds..."                                             |
 |Verse: (Guitar 2)                                                                 |
E|----------------------------------------------------------------------------------|
B|----------------------------------------------------------------------------------|
G|-------------------------------------9-9-9-9-9-9-9-9-9-9-9-9-9-9-9-9-9-9----------|
D|-------------------------------------x-x-x-x-x-x-x-x-x-x-x-x-x-x-x-x-x-x----------|
A|-------------------------------------7-7-7-7-7-7-7-7-7-7-7-7-7-7-7-7-7-7----------|
D|----------------------------------------------------------------------------------|
 |                                                                                  |
 |Verse: (Guitar 1)                                                                 |
E|----------------------------------------------------------------------------------|
B|-6-6-6-6-6-6-6-6-6-6-6-6-6-6-6-6-6-6----------------------------------------------|
G|-5-5-5-5-5-5-5-5-5-5-5-5-5-5-5-5-5-5----------------------------------------------|
D|-3-3-3-3-3-3-3-3-3-3-3-3-3-3-3-3-3-3-0-0-0-0-0-0-0-0-0-0-0-0-0-0-0-0-0-0----------|
A|-------------------------------------0-0-0-0-0-0-0-0-0-0-0-0-0-0-0-0-0-0----------|
D|-------------------------------------0-0-0-0-0-0-0-0-0-0-0-0-0-0-0-0-0-0----------|
 |"Up and outward to bind..."                                                       |
 |Verse: (Guitar 2)                                                                 |
E|----------------------------------------------------------------------------------|
B|----------------------------------------------------------------------------------|
G|-------------------------------------9-9-9-9-9-9-9-9-9-9-9-9-9-9-9-9-9-9----------|
D|-------------------------------------x-x-x-x-x-x-x-x-x-x-x-x-x-x-x-x-x-x----------|
A|-------------------------------------7-7-7-7-7-7-7-7-7-7-7-7-7-7-7-7-7-7----------|
D|----------------------------------------------------------------------------------|
 |                                                                                  |
 |Chorus: (Guitar 1)                                                                |
E|----------------------------------------------------------------------------------|
B|----------------------------------------------------------------------------------|
G|----------------------------------------------------------------------------------|
D|-8-8-8-8-8-8-8-8-8-10-10-10-10-10-10-10-10-10-0-0-0-0-0-0-0-0-0-0-0-0-0-0-0-0-0-0-|
A|-8-8-8-8-8-8-8-8-8-10-10-10-10-10-10-10-10-10-0-0-0-0-0-0-0-0-0-0-0-0-0-0-0-0-0-0-|
D|-8-8-8-8-8-8-8-8-8-10-10-10-10-10-10-10-10-10-0-0-0-0-0-0-0-0-0-0-0-0-0-0-0-0-0-0-|
 |"I was spinning free.."                                                           |
 |Chorus: (Guitar 2)                                                                |
E|----------------------------------------------------------------------------------|
B|----------------------------------------------------------------------------------|
G|----------------------------------------------9-9-9-9-9-9-9-9-9-9-9-9-9-9-9-9-9-9-|
D|-8-8-8-8-8-8-8-8-8-10-10-10-10-10-10-10-10-10-x-x-x-x-x-x-x-x-x-x-x-x-x-x-x-x-x-x-|
A|-8-8-8-8-8-8-8-8-8-10-10-10-10-10-10-10-10-10-7-7-7-7-7-7-7-7-7-7-7-7-7-7-7-7-7-7-|
D|-8-8-8-8-8-8-8-8-8-10-10-10-10-10-10-10-10-10-------------------------------------|
 |                                                                                  |
 |Chorus: (Guitar 1)                                                                |
E|----------------------------------------------------------------------------------|
B|----------------------------------------------------------------------------------|
G|----------------------------------------------------------------------------------|
D|-8-8-8-8-8-8-8-8-8-10-10-10-10-10-10-10-10-10-3-3-3-3-3-3-3-3-3-3-3-3-3-3-3-3-3-3-|
A|-8-8-8-8-8-8-8-8-8-10-10-10-10-10-10-10-10-10-3-3-3-3-3-3-3-3-3-3-3-3-3-3-3-3-3-3-|
D|-8-8-8-8-8-8-8-8-8-10-10-10-10-10-10-10-10-10-3-3-3-3-3-3-3-3-3-3-3-3-3-3-3-3-3-3-|
 |"With a little sweet and simple numbing me"                                       |
 |Chorus: (Guitar 2)                                                                |
E|----------------------------------------------------------------------------------|
B|----------------------------------------------------------------------------------|
G|----------------------------------------------------------------------------------|
D|-8-8-8-8-8-8-8-8-8-10-10-10-10-10-10-10-10-10-3-3-3-3-3-3-3-3-3-3-3-3-3-3-3-3-3-3-|
A|-8-8-8-8-8-8-8-8-8-10-10-10-10-10-10-10-10-10-3-3-3-3-3-3-3-3-3-3-3-3-3-3-3-3-3-3-|
D|-8-8-8-8-8-8-8-8-8-10-10-10-10-10-10-10-10-10-3-3-3-3-3-3-3-3-3-3-3-3-3-3-3-3-3-3-|
 |                                                                                  |
 |Verse: (Guitar 1)                                                                 |
E|----------------------------------------------------------------------------------|
B|-6-6-6-6-6-6-6-6-6-6-6-6-6-6-6-6-6-6----------------------------------------------|
G|-5-5-5-5-5-5-5-5-5-5-5-5-5-5-5-5-5-5----------------------------------------------|
D|-3-3-3-3-3-3-3-3-3-3-3-3-3-3-3-3-3-3-0-0-0-0-0-0-0-0-0-0-0-0-0-0-0-0-0-0----------|
A|-------------------------------------0-0-0-0-0-0-0-0-0-0-0-0-0-0-0-0-0-0----------|
D|-------------------------------------0-0-0-0-0-0-0-0-0-0-0-0-0-0-0-0-0-0----------|
 |"Are you listening..."                                                            |
 |Verse: (Guitar 2)                                                                 |
E|----------------------------------------------------------------------------------|
B|----------------------------------------------------------------------------------|
G|-------------------------------------9-9-9-9-9-9-9-9-9-9-9-9-9-9-9-9-9-9----------|
D|-------------------------------------x-x-x-x-x-x-x-x-x-x-x-x-x-x-x-x-x-x----------|
A|-------------------------------------7-7-7-7-7-7-7-7-7-7-7-7-7-7-7-7-7-7----------|
D|----------------------------------------------------------------------------------|
 |                                                                                  |
 |Verse: (Guitar 1)                                                                 |
E|----------------------------------------------------------------------------------|
B|-6-6-6-6-6-6-6-6-6-6-6-6-6-6-6-6-6-6----------------------------------------------|
G|-5-5-5-5-5-5-5-5-5-5-5-5-5-5-5-5-5-5----------------------------------------------|
D|-3-3-3-3-3-3-3-3-3-3-3-3-3-3-3-3-3-3-0-0-0-0-0-0-0-0-0-0-0-0-0-0-0-0-0-0----------|
A|-------------------------------------0-0-0-0-0-0-0-0-0-0-0-0-0-0-0-0-0-0----------|
D|-------------------------------------0-0-0-0-0-0-0-0-0-0-0-0-0-0-0-0-0-0----------|
 |"Sing it back..."                                                                 |
 |Verse: (Guitar 2)                                                                 |
E|----------------------------------------------------------------------------------|
B|----------------------------------------------------------------------------------|
G|-------------------------------------9-9-9-9-9-9-9-9-9-9-9-9-9-9-9-9-9-9----------|
D|-------------------------------------x-x-x-x-x-x-x-x-x-x-x-x-x-x-x-x-x-x----------|
A|-------------------------------------7-7-7-7-7-7-7-7-7-7-7-7-7-7-7-7-7-7----------|
D|----------------------------------------------------------------------------------| 
 |                                                                                  | 
 |Verse: (Guitar 1)                                                                 |
E|----------------------------------------------------------------------------------|
B|-6-6-6-6-6-6-6-6-6-6-6-6-6-6-6-6-6-6----------------------------------------------|
G|-5-5-5-5-5-5-5-5-5-5-5-5-5-5-5-5-5-5----------------------------------------------|
D|-3-3-3-3-3-3-3-3-3-3-3-3-3-3-3-3-3-3-0-0-0-0-0-0-0-0-0-0-0-0-0-0-0-0-0-0----------|
A|-------------------------------------0-0-0-0-0-0-0-0-0-0-0-0-0-0-0-0-0-0----------|
D|-------------------------------------0-0-0-0-0-0-0-0-0-0-0-0-0-0-0-0-0-0----------|
 |"Tell me what do i need..."                                                       |
 |Verse: (Guitar 2)                                                                 |
E|----------------------------------------------------------------------------------|
B|----------------------------------------------------------------------------------|
G|-------------------------------------9-9-9-9-9-9-9-9-9-9-9-9-9-9-9-9-9-9----------|
D|-------------------------------------x-x-x-x-x-x-x-x-x-x-x-x-x-x-x-x-x-x----------|
A|-------------------------------------7-7-7-7-7-7-7-7-7-7-7-7-7-7-7-7-7-7----------|
D|----------------------------------------------------------------------------------|
 |                                                                                  |
 |Verse: (Guitar 1)                                                                 |
E|----------------------------------------------------------------------------------|
B|-6-6-6-6-6-6-6-6-6-6-6-6-6-6-6-6-6-6----------------------------------------------|
G|-5-5-5-5-5-5-5-5-5-5-5-5-5-5-5-5-5-5----------------------------------------------|
D|-3-3-3-3-3-3-3-3-3-3-3-3-3-3-3-3-3-3-0-0-0-0-0-0-0-0-0-0-0-0-0-0-0-0-0-0----------|
A|-------------------------------------0-0-0-0-0-0-0-0-0-0-0-0-0-0-0-0-0-0----------|
D|-------------------------------------0-0-0-0-0-0-0-0-0-0-0-0-0-0-0-0-0-0----------|
 |"When words lose their meaning..."                                                |
 |Verse: (Guitar 2)                                                                 |
E|----------------------------------------------------------------------------------|
B|----------------------------------------------------------------------------------|
G|-------------------------------------9-9-9-9-9-9-9-9-9-9-9-9-9-9-9-9-9-9----------|
D|-------------------------------------x-x-x-x-x-x-x-x-x-x-x-x-x-x-x-x-x-x----------|
A|-------------------------------------7-7-7-7-7-7-7-7-7-7-7-7-7-7-7-7-7-7----------|
D|----------------------------------------------------------------------------------|
 |                                                                                  |
 |Chorus: (Guitar 1)                                                                |
E|----------------------------------------------------------------------------------|
B|----------------------------------------------------------------------------------|
G|----------------------------------------------------------------------------------|
D|-8-8-8-8-8-8-8-8-8-10-10-10-10-10-10-10-10-10-0-0-0-0-0-0-0-0-0-0-0-0-0-0-0-0-0-0-|
A|-8-8-8-8-8-8-8-8-8-10-10-10-10-10-10-10-10-10-0-0-0-0-0-0-0-0-0-0-0-0-0-0-0-0-0-0-|
D|-8-8-8-8-8-8-8-8-8-10-10-10-10-10-10-10-10-10-0-0-0-0-0-0-0-0-0-0-0-0-0-0-0-0-0-0-|
 |"I was spinning free..."                                                          | 
 |Chorus: (Guitar 2)                                                                |
E|----------------------------------------------------------------------------------|
B|----------------------------------------------------------------------------------|
G|----------------------------------------------9-9-9-9-9-9-9-9-9-9-9-9-9-9-9-9-9-9-|
D|-8-8-8-8-8-8-8-8-8-10-10-10-10-10-10-10-10-10-x-x-x-x-x-x-x-x-x-x-x-x-x-x-x-x-x-x-|
A|-8-8-8-8-8-8-8-8-8-10-10-10-10-10-10-10-10-10-7-7-7-7-7-7-7-7-7-7-7-7-7-7-7-7-7-7-|
D|-8-8-8-8-8-8-8-8-8-10-10-10-10-10-10-10-10-10-------------------------------------|
 |                                                                                  |
 |Chorus: (Guitar 1)                                                                |
E|----------------------------------------------------------------------------------|
B|----------------------------------------------------------------------------------|
G|----------------------------------------------------------------------------------|
D|-8-8-8-8-8-8-8-8-8-10-10-10-10-10-10-10-10-10-3-3-3-3-3-3-3-3-3-3-3-3-3-3-3-3-3-3-|
A|-8-8-8-8-8-8-8-8-8-10-10-10-10-10-10-10-10-10-3-3-3-3-3-3-3-3-3-3-3-3-3-3-3-3-3-3-|
D|-8-8-8-8-8-8-8-8-8-10-10-10-10-10-10-10-10-10-3-3-3-3-3-3-3-3-3-3-3-3-3-3-3-3-3-3-|
 |"With a little sweet and simple numbing me"                                       |
 |Chorus: (Guitar 2)                                                                |
E|----------------------------------------------------------------------------------|
B|----------------------------------------------------------------------------------|
G|----------------------------------------------------------------------------------|
D|-8-8-8-8-8-8-8-8-8-10-10-10-10-10-10-10-10-10-3-3-3-3-3-3-3-3-3-3-3-3-3-3-3-3-3-3-|
A|-8-8-8-8-8-8-8-8-8-10-10-10-10-10-10-10-10-10-3-3-3-3-3-3-3-3-3-3-3-3-3-3-3-3-3-3-|
D|-8-8-8-8-8-8-8-8-8-10-10-10-10-10-10-10-10-10-3-3-3-3-3-3-3-3-3-3-3-3-3-3-3-3-3-3-|
 |                                                                                  |
 |Fill: (Guitar 1)                                                                  |
E|----------------------------------------------------------------------------------|
B|----------------------------------------------------------------------------------|
G|----------------------------------------------------------------------------------|
D|-x-x-x-x-x-x-x-x------------------------------------------------------------------|
A|-x-x-x-x-x-x-x-x------------------------------------------------------------------|
D|-x-x-x-x-x-x-x-x------------------------------------------------------------------|
 |                                                                                  |
 |Chorus: (Guitar 1)                                                                |
E|----------------------------------------------------------------------------------|
B|----------------------------------------------------------------------------------|
G|----------------------------------------------------------------------------------|
D|-8-8-8-8-8-8-8-8-8-10-10-10-10-10-10-10-10-10-0-0-0-0-0-0-0-0-0-0-0-0-0-0-0-0-0-0-|
A|-8-8-8-8-8-8-8-8-8-10-10-10-10-10-10-10-10-10-0-0-0-0-0-0-0-0-0-0-0-0-0-0-0-0-0-0-|
D|-8-8-8-8-8-8-8-8-8-10-10-10-10-10-10-10-10-10-0-0-0-0-0-0-0-0-0-0-0-0-0-0-0-0-0-0-|
 |"Stumble till you crawl..."                                                       |
 |Chorus: (Guitar 2)                                                                |
E|----------------------------------------------------------------------------------|
B|----------------------------------------------------------------------------------|
G|----------------------------------------------9-9-9-9-9-9-9-9-9-9-9-9-9-9-9-9-9-9-|
D|-8-8-8-8-8-8-8-8-8-10-10-10-10-10-10-10-10-10-x-x-x-x-x-x-x-x-x-x-x-x-x-x-x-x-x-x-|
A|-8-8-8-8-8-8-8-8-8-10-10-10-10-10-10-10-10-10-7-7-7-7-7-7-7-7-7-7-7-7-7-7-7-7-7-7-|
D|-8-8-8-8-8-8-8-8-8-10-10-10-10-10-10-10-10-10-------------------------------------|
 |                                                                                  |
 |Chorus: (Guitar 1)                                                                |
E|----------------------------------------------------------------------------------|
B|----------------------------------------------------------------------------------|
G|----------------------------------------------------------------------------------|
D|-8-8-8-8-8-8-8-8-8-10-10-10-10-10-10-10-10-10-3-3-3-3-3-3-3-3-3-3-3-3-3-3-3-3-3-3-|
A|-8-8-8-8-8-8-8-8-8-10-10-10-10-10-10-10-10-10-3-3-3-3-3-3-3-3-3-3-3-3-3-3-3-3-3-3-|
D|-8-8-8-8-8-8-8-8-8-10-10-10-10-10-10-10-10-10-3-3-3-3-3-3-3-3-3-3-3-3-3-3-3-3-3-3-|
 |"Sinking into sweet uncertainty"                                                  |
 |Chorus: (Guitar 2)                                                                |
E|----------------------------------------------------------------------------------|
B|----------------------------------------------------------------------------------|
G|----------------------------------------------------------------------------------|
D|-8-8-8-8-8-8-8-8-8-10-10-10-10-10-10-10-10-10-3-3-3-3-3-3-3-3-3-3-3-3-3-3-3-3-3-3-|
A|-8-8-8-8-8-8-8-8-8-10-10-10-10-10-10-10-10-10-3-3-3-3-3-3-3-3-3-3-3-3-3-3-3-3-3-3-|
D|-8-8-8-8-8-8-8-8-8-10-10-10-10-10-10-10-10-10-3-3-3-3-3-3-3-3-3-3-3-3-3-3-3-3-3-3-|
 |                                                                                  |
 |Fill: (Guitar 1)                                                                  |
E|----------------------------------------------------------------------------------|
B|----------------------------------------------------------------------------------|
G|----------------------------------------------------------------------------------|
D|-x-x--x-x-------------------------------------------------------------------------|
A|-x-x--x-x-------------------------------------------------------------------------|
D|-x-x--x-x-------------------------------------------------------------------------|
 |                                                                                  |
 |Interlude: (Guitar 1)                                                             |
E|----------------------------------------------------------------------------------|
B|----------------------------------------------------------------------------------|
G|----------------------------------------------------------------------------------|
D|-5-5-5-5-5-5-5-5-5-8-8-8-8-8-8-8-8-8-3-3-3-3-3-3-3-3-3-3-3-3-3-3-3-3-3-3----------|
A|-5-5-5-5-5-5-5-5-5-8-8-8-8-8-8-8-8-8-3-3-3-3-3-3-3-3-3-3-3-3-3-3-3-3-3-3----------|
D|-5-5-5-5-5-5-5-5-5-8-8-8-8-8-8-8-8-8-3-3-3-3-3-3-3-3-3-3-3-3-3-3-3-3-3-3----------|
 |                                                                                  |
 |Interlude: (Guitar 2)                                                             |
E|----------------------------------------------------------------------------------|
B|----------------------------------------------------------------------------------|
G|----------------------------------------------------------------------------------|
D|-5-5-5-5-5-5-5-5-5-8-8-8-8-8-8-8-8-8-3-3-3-3-3-3-3-3-3-3-3-3-3-3-3-3-3-3----------|
A|-5-5-5-5-5-5-5-5-5-8-8-8-8-8-8-8-8-8-3-3-3-3-3-3-3-3-3-3-3-3-3-3-3-3-3-3----------|
D|-5-5-5-5-5-5-5-5-5-8-8-8-8-8-8-8-8-8-3-3-3-3-3-3-3-3-3-3-3-3-3-3-3-3-3-3----------|
 |                                                                                  |
 |Interlude: (Guitar 1)                                                             |
E|----------------------------------------------------------------------------------|
B|----------------------------------------------------------------------------------|
G|----------------------------------------------------------------------------------|
D|-5-5-5-5-5-5-5-5-5-8-8-8-8-8-8-8-8-8-3-3-3-3-3-3-3-3-3-3-3-3-3-3-3-3-3-3----------|
A|-5-5-5-5-5-5-5-5-5-8-8-8-8-8-8-8-8-8-3-3-3-3-3-3-3-3-3-3-3-3-3-3-3-3-3-3----------|
D|-5-5-5-5-5-5-5-5-5-8-8-8-8-8-8-8-8-8-3-3-3-3-3-3-3-3-3-3-3-3-3-3-3-3-3-3----------|
 |                                                                                  |
 |Interlude: (Guitar 2)                                                             |
E|----------------------------------------------------------------------------------|
B|----------------------------------------------------------------------------------|
G|----------------------------------------------------------------------------------|
D|-5-5-5-5-5-5-5-5-5-8-8-8-8-8-8-8-8-8-3-3-3-3-3-3-3-3-3-3-3-3-3-3-3-3-3-3----------|
A|-5-5-5-5-5-5-5-5-5-8-8-8-8-8-8-8-8-8-3-3-3-3-3-3-3-3-3-3-3-3-3-3-3-3-3-3----------|
D|-5-5-5-5-5-5-5-5-5-8-8-8-8-8-8-8-8-8-3-3-3-3-3-3-3-3-3-3-3-3-3-3-3-3-3-3----------|
 |                                                                                  |
 |Fill: (Guitar 1)                                                                  |
E|----------------------------------------------------------------------------------|
B|----------------------------------------------------------------------------------|
G|----------------------------------------------------------------------------------|
D|-x-x--x-x-------------------------------------------------------------------------|
A|-x-x--x-x-------------------------------------------------------------------------|
D|-x-x--x-x-------------------------------------------------------------------------|
 |                                                                                  |
 |Interlude: (Guitar 1)                                                             |
E|----------------------------------------------------------------------------------|
B|----------------------------------------------------------------------------------|
G|----------------------------------------------------------------------------------|
D|-5-5-5-5-5-5-5-5-5-8-8-8-8-8-8-8-8-8-3-3-3-3-3-3-3-3-3-3-3-3-3-3-3-3-3-3----------|
A|-5-5-5-5-5-5-5-5-5-8-8-8-8-8-8-8-8-8-3-3-3-3-3-3-3-3-3-3-3-3-3-3-3-3-3-3----------|
D|-5-5-5-5-5-5-5-5-5-8-8-8-8-8-8-8-8-8-3-3-3-3-3-3-3-3-3-3-3-3-3-3-3-3-3-3----------|
 |                                                                                  |
 |Interlude: (Guitar 2)                                                             |
E|----------------------------------------------------------------------------------|
B|----------------------------------------------------------------------------------|
G|----------------------------------------------------------------------------------|
D|-5-5-5-5-5-5-5-5-5-8-8-8-8-8-8-8-8-8-3-3-3-3-3-3-3-3-3-3-3-3-3-3-3-3-3-3----------|
A|-5-5-5-5-5-5-5-5-5-8-8-8-8-8-8-8-8-8-3-3-3-3-3-3-3-3-3-3-3-3-3-3-3-3-3-3----------|
D|-5-5-5-5-5-5-5-5-5-8-8-8-8-8-8-8-8-8-3-3-3-3-3-3-3-3-3-3-3-3-3-3-3-3-3-3----------|
 |                                                                                  |
 |Interlude: (Guitar 1)                                                             |
E|----------------------------------------------------------------------------------|
B|----------------------------------------------------------------------------------|
G|----------------------------------------------------------------------------------|
D|-5-5-5-5-5-5-5-5-5-8-8-8-8-8-8-8-8-8-3-3-3-3-3-3-3-3-3-3-3-3-3-3-3-3-3-3----------|
A|-5-5-5-5-5-5-5-5-5-8-8-8-8-8-8-8-8-8-3-3-3-3-3-3-3-3-3-3-3-3-3-3-3-3-3-3----------|
D|-5-5-5-5-5-5-5-5-5-8-8-8-8-8-8-8-8-8-3-3-3-3-3-3-3-3-3-3-3-3-3-3-3-3-3-3----------|
 |                                                                                  |
 |Interlude: (Guitar 2)                                                             |
E|----------------------------------------------------------------------------------|
B|----------------------------------------------------------------------------------|
G|----------------------------------------------------------------------------------|
D|-5-5-5-5-5-5-5-5-5-8-8-8-8-8-8-8-8-8-3-3-3-3-3-3-3-3-3-3-3-3-3-3-3-3-3-3----------|
A|-5-5-5-5-5-5-5-5-5-8-8-8-8-8-8-8-8-8-3-3-3-3-3-3-3-3-3-3-3-3-3-3-3-3-3-3----------|
D|-5-5-5-5-5-5-5-5-5-8-8-8-8-8-8-8-8-8-3-3-3-3-3-3-3-3-3-3-3-3-3-3-3-3-3-3----------|
 |                                                                                  |
 |Intro: (Guitar 1)                                                                 |
E|----------------------------------------------------------------------------------|
B|-6-6-6-6-6-6-6-6-6-6-6-6-6-6-6-6-6-6----------------------------------------------|
G|-5-5-5-5-5-5-5-5-5-5-5-5-5-5-5-5-5-5----------------------------------------------|
D|-3-3-3-3-3-3-3-3-3-3-3-3-3-3-3-3-3-3----------------------------------------------|
A|----------------------------------------------------------------------------------|
D|----------------------------------------------------------------------------------|
 |"Are you listening?"                                                              |
 |Intro: (Guitar 1)                                                                 |
E|----------------------------------------------------------------------------------|
B|-6-6-6-6-6-6-6-6-6-6-6-6-6-6-6-6-6-6----------------------------------------------|
G|-5-5-5-5-5-5-5-5-5-5-5-5-5-5-5-5-5-5----------------------------------------------|
D|-3-3-3-3-3-3-3-3-3-3-3-3-3-3-3-3-3-3----------------------------------------------|
A|----------------------------------------------------------------------------------|
D|----------------------------------------------------------------------------------|
 |"Are you listening?"                                                              |
 |Post Interlude: (Guitar 1)                                                        |
E|----------------------------------------------------------------------------------|
B|----------------------------------------------------------------------------------|
G|----------------------------------------------------------------------------------|
D|-3-3-3-3-3-3-3-3-3-3-3-3-3-3-3-3-5-5-0-0-0-0-0-0-0-0-0-0-0-0-0-0-0-0-0-0----------|
A|-3-3-3-3-3-3-3-3-3-3-3-3-3-3-3-3-5-5-0-0-0-0-0-0-0-0-0-0-0-0-0-0-0-0-0-0----------|
D|-3-3-3-3-3-3-3-3-3-3-3-3-3-3-3-3-5-5-0-0-0-0-0-0-0-0-0-0-0-0-0-0-0-0-0-0----------|
 |"If your listening..."                                                            |
 |Post Interlude: (Guitar 2)                                                        |
E|----------------------------------------------------------------------------------|
B|----------------------------------------------------------------------------------|
G|-------------------------------------9-9-9-9-9-9-9-9-9-9-9-9-9-9-9-9-9-9----------|
D|-------------------------------------x-x-x-x-x-x-x-x-x-x-x-x-x-x-x-x-x-x----------|
A|-------------------------------------7-7-7-7-7-7-7-7-7-7-7-7-7-7-7-7-7-7----------|
D|----------------------------------------------------------------------------------|
 |                                                                                  |
 |Post Interlude: (Guitar 1)                                                        |
E|----------------------------------------------------------------------------------|
B|----------------------------------------------------------------------------------|
G|----------------------------------------------------------------------------------|
D|-3-3-3-3-3-3-3-3-3-3-3-3-3-3-3-3-5-5-0-0-0-0-0-0-0-0-0-0-0-0-0-0-0-0-0-0----------|
A|-3-3-3-3-3-3-3-3-3-3-3-3-3-3-3-3-5-5-0-0-0-0-0-0-0-0-0-0-0-0-0-0-0-0-0-0----------|
D|-3-3-3-3-3-3-3-3-3-3-3-3-3-3-3-3-5-5-0-0-0-0-0-0-0-0-0-0-0-0-0-0-0-0-0-0----------|
 |"Sing it back..."                                                                 |
 |Post Interlude: (Guitar 2)                                                        |
E|----------------------------------------------------------------------------------|
B|----------------------------------------------------------------------------------|
G|-------------------------------------9-9-9-9-9-9-9-9-9-9-9-9-9-9-9-9-9-9----------|
D|-------------------------------------x-x-x-x-x-x-x-x-x-x-x-x-x-x-x-x-x-x----------|
A|-------------------------------------7-7-7-7-7-7-7-7-7-7-7-7-7-7-7-7-7-7----------|
D|----------------------------------------------------------------------------------| 
 |                                                                                  |
 |Post Interlude: (Guitar 1)                                                        |
E|----------------------------------------------------------------------------------|
B|----------------------------------------------------------------------------------|
G|----------------------------------------------------------------------------------|
D|-3-3-3-3-3-3-3-3-3-3-3-3-3-3-3-3-5-5-0-0-0-0-0-0-0-0-0-0-0-0-0-0-0-0-0-0----------|
A|-3-3-3-3-3-3-3-3-3-3-3-3-3-3-3-3-5-5-0-0-0-0-0-0-0-0-0-0-0-0-0-0-0-0-0-0----------|
D|-3-3-3-3-3-3-3-3-3-3-3-3-3-3-3-3-5-5-0-0-0-0-0-0-0-0-0-0-0-0-0-0-0-0-0-0----------|
 |"I'm still running away..."                                                       |
 |Post Interlude: (Guitar 2)                                                        |
E|----------------------------------------------------------------------------------|
B|----------------------------------------------------------------------------------|
G|-------------------------------------9-9-9-9-9-9-9-9-9-9-9-9-9-9-9-9-9-9----------|
D|-------------------------------------x-x-x-x-x-x-x-x-x-x-x-x-x-x-x-x-x-x----------|
A|-------------------------------------7-7-7-7-7-7-7-7-7-7-7-7-7-7-7-7-7-7----------|
D|----------------------------------------------------------------------------------| 
 |                                                                                  |
 |Post Interlude: (Guitar 1)                                                        |
E|----------------------------------------------------------------------------------|
B|----------------------------------------------------------------------------------|
G|----------------------------------------------------------------------------------|
D|-3-3-3-3-3-3-3-3-3-3-3-3-3-3-3-3-5-5-0-0-0-0-0-0-0-0-0-0-0-0-0-0-0-0-0-0----------|
A|-3-3-3-3-3-3-3-3-3-3-3-3-3-3-3-3-5-5-0-0-0-0-0-0-0-0-0-0-0-0-0-0-0-0-0-0----------|
D|-3-3-3-3-3-3-3-3-3-3-3-3-3-3-3-3-5-5-0-0-0-0-0-0-0-0-0-0-0-0-0-0-0-0-0-0----------|
 |"I won't play your hide and seek game..."                                         |
 |Post Interlude: (Guitar 2)                                                        |
E|----------------------------------------------------------------------------------|
B|----------------------------------------------------------------------------------|
G|-------------------------------------9-9-9-9-9-9-9-9-9-9-9-9-9-9-9-9-9-9----------|
D|-------------------------------------x-x-x-x-x-x-x-x-x-x-x-x-x-x-x-x-x-x----------|
A|-------------------------------------7-7-7-7-7-7-7-7-7-7-7-7-7-7-7-7-7-7----------|
D|----------------------------------------------------------------------------------| 
 |                                                                                  |
 |Fill: (Guitar 1)                                                                  |
E|----------------------------------------------------------------------------------|
B|----------------------------------------------------------------------------------|
G|----------------------------------------------------------------------------------|
D|-x-x-x-x-x-x-x-x------------------------------------------------------------------|
A|-x-x-x-x-x-x-x-x------------------------------------------------------------------|
D|-x-x-x-x-x-x-x-x------------------------------------------------------------------|
 |                                                                                  |
 |Chorus: (Guitar 1)                                                                |
E|----------------------------------------------------------------------------------|
B|----------------------------------------------------------------------------------|
G|----------------------------------------------------------------------------------|
D|-8-8-8-8-8-8-8-8-8-10-10-10-10-10-10-10-10-10-0-0-0-0-0-0-0-0-0-0-0-0-0-0-0-0-0-0-|
A|-8-8-8-8-8-8-8-8-8-10-10-10-10-10-10-10-10-10-0-0-0-0-0-0-0-0-0-0-0-0-0-0-0-0-0-0-|
D|-8-8-8-8-8-8-8-8-8-10-10-10-10-10-10-10-10-10-0-0-0-0-0-0-0-0-0-0-0-0-0-0-0-0-0-0-|
 |"I was spinning free..."                                                          |
 |Chorus: (Guitar 2)                                                                |
E|----------------------------------------------------------------------------------|
B|----------------------------------------------------------------------------------|
G|----------------------------------------------9-9-9-9-9-9-9-9-9-9-9-9-9-9-9-9-9-9-|
D|-8-8-8-8-8-8-8-8-8-10-10-10-10-10-10-10-10-10-x-x-x-x-x-x-x-x-x-x-x-x-x-x-x-x-x-x-|
A|-8-8-8-8-8-8-8-8-8-10-10-10-10-10-10-10-10-10-7-7-7-7-7-7-7-7-7-7-7-7-7-7-7-7-7-7-|
D|-8-8-8-8-8-8-8-8-8-10-10-10-10-10-10-10-10-10-------------------------------------|
 |                                                                                  |
 |Chorus: (Guitar 1)                                                                |
E|----------------------------------------------------------------------------------|
B|----------------------------------------------------------------------------------|
G|----------------------------------------------------------------------------------|
D|-8-8-8-8-8-8-8-8-8-10-10-10-10-10-10-10-10-10-3-3-3-3-3-3-3-3-3-3-3-3-3-3-3-3-3-3-|
A|-8-8-8-8-8-8-8-8-8-10-10-10-10-10-10-10-10-10-3-3-3-3-3-3-3-3-3-3-3-3-3-3-3-3-3-3-|
D|-8-8-8-8-8-8-8-8-8-10-10-10-10-10-10-10-10-10-3-3-3-3-3-3-3-3-3-3-3-3-3-3-3-3-3-3-|
 |"With a little sweet and simple numbing me"                                       |
 |Chorus: (Guitar 2)                                                                |
E|----------------------------------------------------------------------------------|
B|----------------------------------------------------------------------------------|
G|----------------------------------------------------------------------------------|
D|-8-8-8-8-8-8-8-8-8-10-10-10-10-10-10-10-10-10-3-3-3-3-3-3-3-3-3-3-3-3-3-3-3-3-3-3-|
A|-8-8-8-8-8-8-8-8-8-10-10-10-10-10-10-10-10-10-3-3-3-3-3-3-3-3-3-3-3-3-3-3-3-3-3-3-|
D|-8-8-8-8-8-8-8-8-8-10-10-10-10-10-10-10-10-10-3-3-3-3-3-3-3-3-3-3-3-3-3-3-3-3-3-3-|
 |                                                                                  |
 |Fill: (Guitar 1)                                                                  |
E|----------------------------------------------------------------------------------|
B|----------------------------------------------------------------------------------|
G|----------------------------------------------------------------------------------|
D|-x-x--x-x-------------------------------------------------------------------------|
A|-x-x--x-x-------------------------------------------------------------------------|
D|-x-x--x-x-------------------------------------------------------------------------|
 |"Yeah"                                                                            |
 |Chorus: (Guitar 1)                                                                |
E|----------------------------------------------------------------------------------|
B|----------------------------------------------------------------------------------|
G|----------------------------------------------------------------------------------|
D|-8-8-8-8-8-8-8-8-8-10-10-10-10-10-10-10-10-10-0-0-0-0-0-0-0-0-0-0-0-0-0-0-0-0-0-0-|
A|-8-8-8-8-8-8-8-8-8-10-10-10-10-10-10-10-10-10-0-0-0-0-0-0-0-0-0-0-0-0-0-0-0-0-0-0-|
D|-8-8-8-8-8-8-8-8-8-10-10-10-10-10-10-10-10-10-0-0-0-0-0-0-0-0-0-0-0-0-0-0-0-0-0-0-|
 |"What a dizzy dance..."                                                           |
 |Chorus: (Guitar 2)                                                                |
E|----------------------------------------------------------------------------------|
B|----------------------------------------------------------------------------------|
G|----------------------------------------------9-9-9-9-9-9-9-9-9-9-9-9-9-9-9-9-9-9-|
D|-8-8-8-8-8-8-8-8-8-10-10-10-10-10-10-10-10-10-x-x-x-x-x-x-x-x-x-x-x-x-x-x-x-x-x-x-|
A|-8-8-8-8-8-8-8-8-8-10-10-10-10-10-10-10-10-10-7-7-7-7-7-7-7-7-7-7-7-7-7-7-7-7-7-7-|
D|-8-8-8-8-8-8-8-8-8-10-10-10-10-10-10-10-10-10-------------------------------------|
 |                                                                                  |
 |Chorus: (Guitar 1)                                                                |
E|----------------------------------------------------------------------------------|
B|----------------------------------------------------------------------------------|
G|----------------------------------------------------------------------------------|
D|-8-8-8-8-8-8-8-8-8-10-10-10-10-10-10-10-10-10-3-3-3-3-3-3-3-3-3-3-3-3-3-3-3-3-3-3-|
A|-8-8-8-8-8-8-8-8-8-10-10-10-10-10-10-10-10-10-3-3-3-3-3-3-3-3-3-3-3-3-3-3-3-3-3-3-|
D|-8-8-8-8-8-8-8-8-8-10-10-10-10-10-10-10-10-10-3-3-3-3-3-3-3-3-3-3-3-3-3-3-3-3-3-3-|
 |"The sweetness will not be concerned with me"                                     |
 |Chorus: (Guitar 2)                                                                |
E|----------------------------------------------------------------------------------|
B|----------------------------------------------------------------------------------|
G|----------------------------------------------------------------------------------|
D|-8-8-8-8-8-8-8-8-8-10-10-10-10-10-10-10-10-10-3-3-3-3-3-3-3-3-3-3-3-3-3-3-3-3-3-3-|
A|-8-8-8-8-8-8-8-8-8-10-10-10-10-10-10-10-10-10-3-3-3-3-3-3-3-3-3-3-3-3-3-3-3-3-3-3-|
D|-8-8-8-8-8-8-8-8-8-10-10-10-10-10-10-10-10-10-3-3-3-3-3-3-3-3-3-3-3-3-3-3-3-3-3-3-|
 |                                                                                  |
 |Fill: (Guitar 1)                                                                  |
E|----------------------------------------------------------------------------------|
B|----------------------------------------------------------------------------------|
G|----------------------------------------------------------------------------------|
D|-x-x-x-x-x-x-x-x------------------------------------------------------------------|
A|-x-x-x-x-x-x-x-x------------------------------------------------------------------|
D|-x-x-x-x-x-x-x-x------------------------------------------------------------------|
 |                                                                                  |
 |Chorus: (Guitar 1)                                                                |
E|----------------------------------------------------------------------------------|
B|----------------------------------------------------------------------------------|
G|----------------------------------------------------------------------------------|
D|-8-8-8-8-8-8-8-8-8-10-10-10-10-10-10-10-10-10-3-3-3-3-3-3-3-3-3-3-3-3-3-3-3-3-3-3-|
A|-8-8-8-8-8-8-8-8-8-10-10-10-10-10-10-10-10-10-3-3-3-3-3-3-3-3-3-3-3-3-3-3-3-3-3-3-|
D|-8-8-8-8-8-8-8-8-8-10-10-10-10-10-10-10-10-10-3-3-3-3-3-3-3-3-3-3-3-3-3-3-3-3-3-3-|
 |"No the sweetness will not be concerned with me"                                  |
 |Chorus: (Guitar 2)                                                                |
E|----------------------------------------------------------------------------------|
B|----------------------------------------------------------------------------------|
G|----------------------------------------------------------------------------------|
D|-8-8-8-8-8-8-8-8-8-10-10-10-10-10-10-10-10-10-3-3-3-3-3-3-3-3-3-3-3-3-3-3-3-3-3-3-|
A|-8-8-8-8-8-8-8-8-8-10-10-10-10-10-10-10-10-10-3-3-3-3-3-3-3-3-3-3-3-3-3-3-3-3-3-3-|
D|-8-8-8-8-8-8-8-8-8-10-10-10-10-10-10-10-10-10-3-3-3-3-3-3-3-3-3-3-3-3-3-3-3-3-3-3-|
 |                                                                                  |
 |Chorus: (Guitar 1)                                                                |
E|----------------------------------------------------------------------------------|
B|----------------------------------------------------------------------------------|
G|----------------------------------------------------------------------------------|
D|-8-8-8-8-8-8-8-8-8-10-10-10-10-10-10-10-10-10-3-3-3-3-3-3-3-3-3-3-3-3-3-3-3-3-3-3-|
A|-8-8-8-8-8-8-8-8-8-10-10-10-10-10-10-10-10-10-3-3-3-3-3-3-3-3-3-3-3-3-3-3-3-3-3-3-|
D|-8-8-8-8-8-8-8-8-8-10-10-10-10-10-10-10-10-10-3-3-3-3-3-3-3-3-3-3-3-3-3-3-3-3-3-3-|
 |"No the sweetness will not be concerned with me"                                  |
 |Chorus: (Guitar 2)                                                                |
E|----------------------------------------------------------------------------------|
B|----------------------------------------------------------------------------------|
G|----------------------------------------------------------------------------------|
D|-8-8-8-8-8-8-8-8-8-10-10-10-10-10-10-10-10-10-3-3-3-3-3-3-3-3-3-3-3-3-3-3-3-3-3-3-|
A|-8-8-8-8-8-8-8-8-8-10-10-10-10-10-10-10-10-10-3-3-3-3-3-3-3-3-3-3-3-3-3-3-3-3-3-3-|
D|-8-8-8-8-8-8-8-8-8-10-10-10-10-10-10-10-10-10-3-3-3-3-3-3-3-3-3-3-3-3-3-3-3-3-3-3-|
 |                                                                                  |
 |End: (Guitar 1)                                                                   |
E|----------------------------------------------------------------------------------|
B|----------------------------------------------------------------------------------|
G|----------------------------------------------------------------------------------|
D|-3--------------------------------------------------------------------------------|
A|-3--------------------------------------------------------------------------------|
D|-3--------------------------------------------------------------------------------|
 |                                                                                  |
 |End: (Guitar 2)                                                                   |
E|----------------------------------------------------------------------------------|
B|----------------------------------------------------------------------------------|
G|----------------------------------------------------------------------------------|
D|-3--------------------------------------------------------------------------------|
A|-3--------------------------------------------------------------------------------|
D|-3--------------------------------------------------------------------------------
Comments