Jimmy Eat World - Sweetness Chords & Tabs

 

Sweetness Chords & Tabs

Jimmy Eat World Chords & Tabs

Version: 4 Type: Tab 0 ratings
1 star 2 stars 3 stars 4 stars 5 stars
comments

Sweetness Tab

   
#----------------------------------PLEASE NOTE---------------------------------#
#This file is the author's own work and represents their interpretation of the #
#song. You may only use this file for private study, scholarship, or research. #
#------------------------------------------------------------------------------#

Song:Sweetness 
Artist:Jimmy Eat World  
Album:Bleed America
Author:Frank Sortelli
Tuning:Drop-D

Intro: 
|-3-3-3-3-3-3-3-3-3-3-3-3-|
|-6-6-6-6-6-6-6-6-6-6-6-6-|
|-5-5-5-5-5-5-5-5-5-5-5-5-| 
|-3-3-3-3-3-3-3-3-3-3-3-3-| 
|-3-3-3-3-3-3-3-3-3-3-3-3-| 
|-3-3-3-3-3-3-3-3-3-3-3-3-| 

Verse: 
Guitar 1 
|-3-3-3-3-3-3-3-3-3-3-3-3-3-3-3-3---------------------------------| 
|-6-6-6-6-6-6-6-6-6-6-6-6-6-6-6-6---------------------------------| 
|-5-5-5-5-5-5-5-5-5-5-5-5-5-5-5-5---------------------------------| 
|-3-3-3-3-3-3-3-3-3-3-3-3-3-3-3-3-0-0-0-0-0-0-0-0-0-0-0-0-0-0-0-0-| 
|-3-3-3-3-3-3-3-3-3-3-3-3-3-3-3-3-0-0-0-0-0-0-0-0-0-0-0-0-0-0-0-0-| 
|-3-3-3-3-3-3-3-3-3-3-3-3-3-3-3-3-0-0-0-0-0-0-0-0-0-0-0-0-0-0-0-0-| 

Guitar 2 
|-----------------------------------------------------------------| 
|-----------------------------------------------------------------| 
|---------------------------------9-9-9-9-9-9-9-9-9-9-9-9-9-9-9-9-| 
|---------------------------------x-x-x-x-x-x-x-x-x-x-x-x-x-x-x-x-| 
|---------------------------------7-7-7-7-7-7-7-7-7-7-7-7-7-7-7-7-| 
|-----------------------------------------------------------------| 


Chorus: 
  Bb5             C5                      D5 
|-------------------------------------------------------------------------| 
|-------------------------------------------------------------------------| 
|-------------------------------------------------------------------------| 
|-8-8-8-8-8-8-8-8-10-10-10-10-10-10-10-10-0-0-0-0-0-0-0-0-0-0-0-0-0-0-0-0-| 
|-8-8-8-8-8-8-8-8-10-10-10-10-10-10-10-10-0-0-0-0-0-0-0-0-0-0-0-0-0-0-0-0-| 
|-8-8-8-8-8-8-8-8-10-10-10-10-10-10-10-10-0-0-0-0-0-0-0-0-0-0-0-0-0-0-0-0-| 

  Bb5             C                       F5 
|-------------------------------------------------------------------------| 
|-------------------------------------------------------------------------| 
|-------------------------------------------------------------------------| 
|-8-8-8-8-8-8-8-8-10-10-10-10-10-10-10-10-3-3-3-3-3-3-3-3-3-3-3-3-3-3-3-3-| 
|-8-8-8-8-8-8-8-8-10-10-10-10-10-10-10-10-3-3-3-3-3-3-3-3-3-3-3-3-3-3-3-3-| 
|-8-8-8-8-8-8-8-8-10-10-10-10-10-10-10-10-3-3-3-3-3-3-3-3-3-3-3-3-3-3-3-3-| 

Interlude: no vocals
Guitar 1 
  G5              Bb5             F5 
|-----------------------------------------------------------------| 
|-----------------------------------------------------------------| 
|-----------------------------------------------------------------| 
|-5-5-5-5-5-5-5-5-8-8-8-8-8-8-8-8-3-3-3-3-3-3-3-3-3-3-3-3-3-3-3-3-| 
|-5-5-5-5-5-5-5-5-8-8-8-8-8-8-8-8-3-3-3-3-3-3-3-3-3-3-3-3-3-3-3-3-| 
|-5-5-5-5-5-5-5-5-8-8-8-8-8-8-8-8-3-3-3-3-3-3-3-3-3-3-3-3-3-3-3-3-| 
[ Tab from: http://www.guitartabs.cc/tabs/j/jimmy_eat_world/sweetness_tab_ver_4.html ]
Guitar 2 
|-----------------------------------------------------------------------| 
|-----------------------------------------------------------------------| 
|-10-10-12--12\14-10-14/12/10/9-10-5--12-14-10-12\14-10-14/12/10/9-10-5-| 
|-x--x--x---x--x--x--x--x--x--x-x--x--x--x--x--x--x--x--x--x--x--x-x--x-| 
|-8--8--10--10\12-8--12/10/8/-7\8/-3--10-12-8--10\12-8--12/10/8/-7\8/-3-| 
|-----------------------------------------------------------------------| 

Second Interlude:
Play Verse 2x 
Play Chorus 1x 

Outro: 
  Bb5             C                       F5 
|-------------------------------------------------------------------------| 
|-------------------------------------------------------------------------| 
|-------------------------------------------------------------------------| 
|-8-8-8-8-8-8-8-8-10-10-10-10-10-10-10-10-3-3-3-3-3-3-3-3-3-3-3-3-3-3-3-3-| 
|-8-8-8-8-8-8-8-8-10-10-10-10-10-10-10-10-3-3-3-3-3-3-3-3-3-3-3-3-3-3-3-3-| 
|-8-8-8-8-8-8-8-8-10-10-10-10-10-10-10-10-3-3-3-3-3-3-3-3-3-3-3-3-3-3-3-3-| 
  

Structure: 

Intro & Verse 

Chorus 

Verse 

Chorus 

Verse 

Interlude 

Break (play intro) 

Interlude II 

Chorus 

**************************************************************************************************************


Song:Believe in what you want
Artist:Jimmy Eat World
Album:clarity
Author:Frank Sortelli
Tuning:Drop D


Intro x2 : verse x4

E|--------------------------------------------------| 
B|--------------------------------------------------| 
G|-10-10-10-10hbr--9-9-9-9-10-10-10-10-10-10-10-10--| 
D|-x--x--x---xhbr--x-x-x-x-8--8--8--8--8--8--8--8---| 
A|-8--8--8---8hbr--8-8-8-8-8--8--8--8--8--8--8--8---| 
d|-------------------------8--8--8--8--8--8--8--8---| 

 
Chorus: x2
   F               Dm              Bb 
E|---------------------------------------------------------| 
B|-----------------3-3-3-3-3-3-3-3-------------------------| 
G|-5-5-5-5-5-5-5-5-2-2-2-2-2-2-2-2-10-10-10-10-10-10-10-10-| 
D|-3-3-3-3-3-3-3-3-0-0-0-0-0-0-0-0-8--8--8--8--8--8--8--8--| 
A|-3-3-3-3-3-3-3-3-0-0-0-0-0-0-0-0-8--8--8--8--8--8--8--8--| 
d|-3-3-3-3-3-3-3-3-0-0-0-0-0-0-0-0-8--8--8--8--8--8--8--8--| 

  G       Bb 
E|---------------------| 
B|---------------------| 
G|-7-7-7-7\10-10-10-10-| 
D|-5-5-5-5\8--8--8--8--| 
A|-5-5-5-5\8--8--8--8--| 
d|-5-5-5-5\8--8--8--8--| 
  

Bridge: x4
  Dm              Bb 
E|-----------------------------------------| 
B|-----------------------------------------| 
G|-2-2-2-2-2-2-2-2-10-10-10-10-10-10-10-10-| 
D|-0-0-0-0-0-0-0-0-8--8--8--8--8--8--8--8--| 
A|-0-0-0-0-0-0-0-0-8--8--8--8--8--8--8--8--| 
d|-0-0-0-0-0-0-0-0-8--8--8--8--8--8--8--8--| 

your camera flash 
on us, meaningless 

End on: 
  F 
E|---| 
B|---| 
G|-5-| 
D|-3-| 
A|-3-| 
D|-3-| 

Structure:

verse 1

chorus

verse 2

chorus

bridge

verse 3

chorus

end



Email me with comment or questions.
Frank sortelli    Firebreather6@cs.com
6:50 PM 9/9/01    copyright 2001
Comments