Jimmy Eat World - Sweetness Chords & Tabs

 

Sweetness Chords & Tabs

Jimmy Eat World Chords & Tabs

Version: 3 Type: Tab 0 ratings
1 star 2 stars 3 stars 4 stars 5 stars
comments

Sweetness Tab

#----------------------------------PLEASE NOTE------------------------------------------------#
# This file is the author's own work and represents their interpretation of the  #
# song. You may only use this file for private study, scholarship, or research.#
#--------------------------------------------------------------------------------------------------------#


Title:                        Sweetness
Band:                         Jimmy Eat World
Album:                        Jimmy Eat World
Transcribed by:               Kye Rabon
E-mail:                       kyerabon@yahoo.com
Tuning:                       Drop D

Listen to the song for strumming patterns

                                           

Gtr 2(clean electric)                                           Gtr 1 (elec w/distortion)
                                 
                   ...................listening, whoa
                   ...................back, whoa
                   ...................unwinds, whoa
                   ...................to bind, whoa
e-------8-----8-----8-----8-----8-------------I-----------------------------------------------------
b-------8-----8-----8-----8-----8-------------I-----------------------------------------------------
g------10----10----10----10----10---And so on-I--9----9----9----9----9---9---------------------
d------10----10----10----10----10-------------I--X----X----X----X----X---X--------------------
a---------------------------------------------I--7----7----7----7----7---7---------------------
D---------------------------------------------I--0----0----0----0----0---0---------------------
                                           (2nd verse same as the 1st)

Gtr 1 (Gtr 2 plays same thing throughout song)

       I was spinning free, whoa
e-----------------------------------------------------------------------------------------------------------
b-----------------------------------------------------------------------------------------------------------
g------------------------------------------------------------------------------------------9-------------
d-----------8----------------------------10------------------------0-----------------------X-------------
a-----------8----------------------------10------------------------0-----------------------7-------------
D-----------8----------------------------10------------------------0-----------------------0-------------
[ Tab from: http://www.guitartabs.cc/tabs/j/jimmy_eat_world/sweetness_tab_ver_3.html ]
   With a little sweet and simple numbing me
e-----------------------------------------------------------------------------------------------------------------
b-----------------------------------------------------------------------------------------------------------------
g-----------------------------------------------------------------------------------------------------------------
d----------8-------------------------10------------0---------------3----------------------------------------
a----------8-------------------------10------------0---------------3-----------------------------------------
D----------8-------------------------10------------0---------------3-----------------------------------------


Bridge:                                                     Break:
                                                                (Gtr 2)
       oooooooooooooh
e-------------------------------------------------------I--------8-----------------------------------------------------
b-------------------------------------------------------I--------8-----------------------------------------------------
g-------------------------------------------------------I-------10-----------------------------------------------------
d-----------------5---------------8----------------3----I-------10---------------------------------------------------
a-----------------5---------------8----------------3----I----------------------------------------------------------
D-----------------5---------------8----------------3----I----------------------------------------------------------


3rd Verse
.............listening, whoa
.............it back, whoa
.............away, whoa
.............games,whoa

e--------------------------------------------------------------------------------------------------
b----------------------------------------------------------------------------------------------
g------------------------------------------------------------------------------------------------
d----------3------------5-------------0---------------x---x--x---x-------------------------------------
a----------3------------5-------------0---------------x---x--x---x-------------------------------------
D----------3------------5-------------0---------------x---x--x---x------------------------------------

..........will not be concerned with me

e---------------------------------------------------
b---------------------------------------------------
g---------------------------------------------------
d---8---------10----------3-------------------------
a---8---------10----------3-------------------------
D---8---------10----------3-------------------------


there it is. I tried to keep it simple. email me for questions. 




Comments