Jimmy Eat World - Sweetness Chords & Tabs

 

Sweetness Chords & Tabs

Jimmy Eat World Chords & Tabs

Version: 2 Type: Tab 0 ratings
1 star 2 stars 3 stars 4 stars 5 stars
comments

Sweetness Tab

Artist-Jimmy eat world
Song-sweetness
submitted by-Tommy flores

drop-D tuning (DADGBe)

x-mute string with finger


intro

guitar 1 (clean)
e---8-----|
B---8-----|
G---10----|
D---10----|
A---------|
D---------|

guitar 2 (distorted)
e---------|
B---------|
G---9-----|
D---x-----|
A---7-----|
D---------|
[ Tab from: http://www.guitartabs.cc/tabs/j/jimmy_eat_world/sweetness_tab_ver_2.html ]
main riff (both guitars distorted)
e--------------------------------------------------------------|
B--------------------------------------------------------------|
G--------------------------------------------------------------|
D---8-8-8-8-8-8-8-8-10-10-10-10-10-10-10-10-0-0-0-0-0-0-0-0----|
A---8-8-8-8-8-8-8-8-10-10-10-10-10-10-10-10-0-0-0-0-0-0-0-0----|
D---8-8-8-8-8-8-8-8-10-10-10-10-10-10-10-10-0-0-0-0-0-0-0-0----|



The cool little thing that Tom does...(listen for pause in main riff)
e-------------------|
B-------------------|
G-------------9-----|
D---10-10-10--x-----|
A---10-10-10--7-----|
D---10-10-10--------|



well thats what I have, Its 95 percent right
Comments