Jimmy Eat World - Sweetness Chords & Tabs

 

Sweetness Chords & Tabs

Jimmy Eat World Chords & Tabs

Version: 1 Type: Tab 3 ratings
1 star 2 stars 3 stars 4 stars 5 stars
comments

Sweetness Tab

Sweetness
By: Jimmy Eat World
From the album "Bleed American"
--------------------------------------------------------------------

Drop D tuning
Are you listening, whoa-oh-oh-oh-oh-oh
(clean)
e-3-3-3-3-3-3-3-3-3-3-3-3-3-3-3-3-3-3--
A-6-6-6-6-6-6-6-6-6-6-6-6-6-6-6-6-6-6--
G-5-5-5-5-5-5-5-5-5-5-5-5-5-5-5-5-5-5--
D-3-3-3-3-3-3-3-3-3-3-3-3-3-3-3-3-3-3--
A-3-3-3-3-3-3-3-3-3-3-3-3-3-3-3-3-3-3--
E-3-3-3-3-3-3-3-3-3-3-3-3-3-3-3-3-3-3--

(distortion)
e-----------------------------------------
B-----------------------------------------
G-------9-9-9-9-9-9-------9-9-9-9-9-9-----
D-------x-x-x-x-x-x-------x-x-x-x-x-x-----
A-------7-7-7-7-7-7-------7-7-7-7-7-7-----
E-0-0-0-0-0-0-0-0-0-0-0-0-0-0-0-0-0-0-----



Sing it back, whoa-oh-oh-oh-oh-oh
(clean)
e-3-3-3-3-3-3-3-3-3-3-3-3-3-3-3-3-3-3--
A-6-6-6-6-6-6-6-6-6-6-6-6-6-6-6-6-6-6--
G-5-5-5-5-5-5-5-5-5-5-5-5-5-5-5-5-5-5--
D-3-3-3-3-3-3-3-3-3-3-3-3-3-3-3-3-3-3--
A-3-3-3-3-3-3-3-3-3-3-3-3-3-3-3-3-3-3--
E-3-3-3-3-3-3-3-3-3-3-3-3-3-3-3-3-3-3--

(distortion)
e-----------------------------------------
B-----------------------------------------
G-------9-9-9-9-9-9-------9-9-9-9-9-9-----
D-------x-x-x-x-x-x-------x-x-x-x-x-x-----
A-------7-7-7-7-7-7-------7-7-7-7-7-7-----
E-0-0-0-0-0-0-0-0-0-0-0-0-0-0-0-0-0-0-----



Straight from your deadly rhyme wines
(Straight from your deadly rhyme wines)
(clean)
e-3-3-3-3-3-3-3-3-3-3-3-3-3-3-3-3-3-3--
A-6-6-6-6-6-6-6-6-6-6-6-6-6-6-6-6-6-6--
G-5-5-5-5-5-5-5-5-5-5-5-5-5-5-5-5-5-5--
D-3-3-3-3-3-3-3-3-3-3-3-3-3-3-3-3-3-3--
A-3-3-3-3-3-3-3-3-3-3-3-3-3-3-3-3-3-3--
E-3-3-3-3-3-3-3-3-3-3-3-3-3-3-3-3-3-3--

Whoa-oh                   Whoa-oh
(distortion)
e-----------------------------------------
B-----------------------------------------
G-------9-9-9-9-9-9-------9-9-9-9-9-9-----
D-------x-x-x-x-x-x-------x-x-x-x-x-x-----
A-------7-7-7-7-7-7-------7-7-7-7-7-7-----
E-0-0-0-0-0-0-0-0-0-0-0-0-0-0-0-0-0-0-----

Up and I would do fine(up and I would do fine)
[ Tab from: http://www.guitartabs.cc/tabs/j/jimmy_eat_world/sweetness_tab.html ]
(clean)
e-3-3-3-3-3-3-3-3-3-3-3-3-3-3-3-3-3-3--
A-6-6-6-6-6-6-6-6-6-6-6-6-6-6-6-6-6-6--
G-5-5-5-5-5-5-5-5-5-5-5-5-5-5-5-5-5-5--
D-3-3-3-3-3-3-3-3-3-3-3-3-3-3-3-3-3-3--
A-3-3-3-3-3-3-3-3-3-3-3-3-3-3-3-3-3-3--
E-3-3-3-3-3-3-3-3-3-3-3-3-3-3-3-3-3-3--

Whoa-oh                   Whoa-oh
(distortion)
e-----------------------------------------
B-----------------------------------------
G-------9-9-9-9-9-9-------9-9-9-9-9-9-----
D-------x-x-x-x-x-x-------x-x-x-x-x-x-----
A-------7-7-7-7-7-7-------7-7-7-7-7-7-----
E-0-0-0-0-0-0-0-0-0-0-0-0-0-0-0-0-0-0-----


(distortion)
I was spinnin free, whoa-oh-oh-oh-oh-oh
e--------------------------------------------------
B--------------------------------------------------
G-10-10-10-10-10-10-10-10-12-12-12-12-12-12-12-12--
D-8--8--8--8--8--8--8--8--10-10-10-10-10-10-10-10--
A-8--8--8--8--8--8--8--8--10-10-10-10-10-10-10-10--
E-8--8--8--8--8--8--8--8--10-10-10-10-10-10-10-10--

e-----------------------------------------
B-----------------------------------------
G-------9-9-9-9-9-9-------9-9-9-9-9-9-----
D-------x-x-x-x-x-x-------x-x-x-x-x-x-----
A-------7-7-7-7-7-7-------7-7-7-7-7-7-----
E-0-0-0-0-0-0-0-0-0-0-0-0-0-0-0-0-0-0-----


With a little sweet and simple numbing me

e--------------------------------------------------
B--------------------------------------------------
G-10-10-10-10-10-10-10-10-12-12-12-12-12-12-12-12--
D-8--8--8--8--8--8--8--8--10-10-10-10-10-10-10-10--
A-8--8--8--8--8--8--8--8--10-10-10-10-10-10-10-10--
E-8--8--8--8--8--8--8--8--10-10-10-10-10-10-10-10--

e-----------------------------------
B-----------------------------------
G-10-10-10-10-10-10-10-10-10-10-10--
D-10-10-10-10-10-10-10-10-10-10-10--
A-8--8--8--8--8--8--8--8--8--8--8---
E-----------------------------------

That's all except for the interludes which is just the chorus 
over again. It's alot easier to play it this way because you don't 
need 2 guitars to play it. 
Any questions about it just post it on the message board.
CarsonB
Comments