Jimmy Eat World - Splash Turn Twist Chords & Tabs

 

Splash Turn Twist Chords & Tabs

Jimmy Eat World Chords & Tabs

Version: 1 Type: Tab 0 ratings
1 star 2 stars 3 stars 4 stars 5 stars
comments

Splash Turn Twist Tab

   
Splash Turn Twist
Jimmy Eat World

Drop D tuning

Tabbed By Ross Lund (Corrections by Jonny Ren)

Intro (not quite sure about gtr 2)

Guitar 1
E------------------------------------------------------------------------------|
B------------------------------------------------------------------------------|
G------------------------------------------------------------------------------|
D-333----10-10-10-10-10----333----88888---333----10-10-10-10-10-----77788888---|
A-333----10-10-10-10-10----333----88888---333----10-10-10-10-10-----77788888---|
D-333----10-10-10-10-10----333----88888---333----10-10-10-10-10-----77788888---|


Verse

E------------------------|
B------------------------|
G------5555-2222-3333----|
D-3333-5555-2222-3333----|
A-3333-3333-0000-1111----|
D-3333-------------------|

Bridge

E---------------------------------------------------------------------|
B---------------------------------------------------------------------|
G---------------------------------------------------77775555-33333333-|
D5555555588888888-0000000088888888-5555555588888888-77775555-33333333-|
A5555555588888888-0000000088888888-5555555588888888-55553333-11111111-|
D5555555588888888-0000000088888888-5555555588888888-------------------|

Chorus
E------------------------------------------|
B------------------------------------------|
G----------55555555-33333333-----33333-----|
D-33333333-55555555-33333333-555-33333-----|
A-33333333-33333333-11111111-555-11111-----|
D-33333333-------------------555-----------|
[ Tab from: http://www.guitartabs.cc/tabs/j/jimmy_eat_world/splash_turn_twist_tab.html ]
Interlude
E----------------------------------------------------------------------|
B----------------------------------------------------------------------|
G-77777777-33333333-77777777-33333333-77777777-33333333-7777-5555-3333-|
D-77777777-33333333-77777777-33333333-77777777-33333333-7777-5555-3333-|
A-55555555-11111111-55555555-11111111-55555555-11111111-5555-3333-1111-|
D----------------------------------------------------------------------|

Lead Part For 2nd intro

E---------------------------------------------------------------------------|
B---------------------------------------------------------------------------|
G-101010-99-101210-141414-1212-14-1010-10-99-10-12-14-14-14-15-1515-17-14---|
D---------------------------------------------------------------------------|
A---------------------------------------------------------------------------|

Guitar Solo (Over Verse Chords)

E------------------------------------------------------------------|
B------------------------------------------------------------------|
G-101010-99-101210-141414-1212-14-1010-10-99-10-12-10-555-7779-----|
D------------------------------------------------------------------|
A------------------------------------------------------------------|

E---------------------------------------------------------------------------|
B---------------------------------------------------------------------------|
G-101010-99-101210-141414-1212-14-1010-10-99-10-12-14-14-14-15-15-17-14-12--|
D---------------------------------------------------------------------------|
A---------------------------------------------------------------------------|

This is Played continuously over the last chorus
-
E-----------------------------------------------------------------------|
B-----------------------------------------------------------------------|
G--10-------------------------------------------------------------------|
D--x--------------------------------------------------------------------|
A--8--------------------------------------------------------------------|
D-----------------------------------------------------------------------|
Comments