Jimmy Eat World - Splash Turn Twist Chords & Tabs

 

Splash Turn Twist Chords & Tabs

Jimmy Eat World Chords & Tabs

Version: 1 Type: Bass Tab 0 ratings
1 star 2 stars 3 stars 4 stars 5 stars
comments

Splash Turn Twist Bass Tab

   
Artist: Jimmy Eat World
Song: (Splash) Turn Twist
Album: Bleed American (Import) and Firestarter EP
Tabbed by: Kmilongo (kmilo1989@gmail.com)
Tuning: Drop-D Tuning (GDAD)

Notes:
-Intro: I'm not sure if the notes with an X should be played or not... most likely not to.
-Verse and Chorus: The last times these are played, they have some variations (little pauses at the end).


Intro

G|-----------------------------------------------|
D|-----------------------------------------------|
A|------3x---------1x---------3x---------1--1-1-1|
D|3-3-3------3-3-3------3-3-3------0-0-0---------|

Verse

G|---------------------------------------------------------------|
D|---------------------------------------------------------------|
A|------3-3-3-3-3-------1-1-1-1-1-------3-3-3-3-3-------1-1-1-1-1|
D|3-3-3-----------3-3-3-----------3-3-3-----------0-0-0----------|

Before Chorus
[ Tab from: http://www.guitartabs.cc/tabs/j/jimmy_eat_world/splash_turn_twist_btab.html ]
G|---------------------------------------------------------------|
D|---------------------------------------------------------------|
A|---------------------------------------------------------------|
D|5-5-5-5-5-5-5-5-8-8-8-8-8-8-8-8-0-0-0-0-0-0-0-0-8-8-8-8-8-8-8-8|


G|---------------------------------------------------------------|
D|---------------------------------------------------------------|
A|--------------------------------5-5-5-5-3-3-3-3-1-1-1-1-1-1-1-1|
D|5-5-5-5-5-5-5-5-8-8-8-8-8-8-8-8--------------------------------|

Chorus

G|---------------------------------------------------------------|
D|---------------------------------------------------------------|
A|----------------3-3-3-3-3-3-3-3--------------------------------|
D|3-3-3-3-3-3-3-3-----------------8-8-8-8-8-8-8-8-5-5-5-8-8-8-8-8|

Bridge

G|-------------------------------|    |-------------------------------|
D|-------------------------------|    |-------------------------------|
A|----------------1-1-1-1-1-1-1-1|    |5-5-5-5-3-3-3-3-1-1-1-1-1-1-1-1|
D|0-0-0-0-0-0-0-0----------------| x3 |-------------------------------|

Order:

Intro x1
Verse x2
Before Chorus x1
Intro x1
Verse x2
Before Chorus x1
Chorus x4
Bridge x1
Verse x2
Chorus x6

Song ends with 
D|8~|
Comments